Myopic Son - Hazel Chords & Tabs

 

Hazel Chords & Tabs

Myopic Son Chords & Tabs

Version: 2 Type: Tab 0 ratings
1 star 2 stars 3 stars 4 stars 5 stars
comments

Hazel Tab

   
Band:  Myopic Son
Song:  Hazel
Album:  Prodigal

Song is in dropped-D tuning (D A D G B E)

Verse (Switches between open and palm-muting throughout song)
E ---------------------------------------------------------|
B ---------------------------------------------------------|
G ---------------------------------------------------------|
D ---3---0---5---0---6---0-----0---5---0-----0---3---0-----|
A ---3---0---5---0---6---0-----0---5---0-----0---3---0-----|
D ---3---0---5---0---6---0-----0---5---0-----0---3---0-----|

E ---------------------------------------------------------|
B ---------------------------------------------------------|
G ---------------------------------------------------------|
D ---3---0---5---0---6---0-----0---8---8---X-X---7---7-----|
A ---3---0---5---0---6---0-----0---8---8---X-X---7---7-----|
D ---3---0---5---0---6---0-----0---8---8---X-X---7---7-----|

(Palm muted)
E ---------------------------------------------------------|
B ---------------------------------------------------------|
G ---------------------------------------------------------|
D ---------------------------------------------------------|
A ---------------------------------------------------------|
D ---3---0---5---0---6---0-----0---5---0-----0---3---0-----|

E ---------------------------------------------------------|
B ---------------------------------------------------------|
G ---------------------------------------------------------|
D ---------------------------------------------------------|
A ---------------------------------------------------------|
D ---3---0---5---0---6---0-----0---8---8---X-X---7---7-----|


Prechorus
E ---6-------------------------------------------------------|
B ---6-------------------------------------------------------|
G ---8-------------------------------------------------------|
D ---8-----0-----1---0---3---0-----0---8-8-8-8-7-7-7---------| Play through 3 times
A ---6-----0-----1---0---3---0-----0---8-8-8-8-7-7-7---------|
D ---------0-----1---0---3---0-----0---8-8-8-8-7-7-7---------|
             pm |--------------------------------------------|

E ---6-----------------------------------------------------|
B ---6-----------------------------------------------------|
G ---8-----------------------------------------------------|
D ---8---0---3---3---3---0---3---3-3---3---3---------------| Last time through
A ---6---0---3---3---3---0---3---3-3---3---3---------------|
D -------0---3---3---3---0---3---3-3---3---3---------------|


Chorus
E ------------------------------------------------|
B ------------------------------------------------|
G ------------------------------------------------|
D ---5-----3-----1-----0---1---0-1-0-1-3-1--------|
A ---5-----3-----1-----0---1---0-1-0-1-3-1--------|
D ---5-----3-----1-----0---1---0-1-0-1-3-1--------|

E -------------------------------------|
B ---------------------4/11------------|
G ---------------------3/10------------|
D ---5-----3-----1-----1/8-------------|
A ---5-----3-----1-----1/8-------------|
D ---5-----3-----1-----1/8-------------|

E ------------------------------------------------|
B ------------------------------------------------|
G ------------------------------------------------|
D ---5-----3-----1-----0---1---0h1p0h1h3p1--------|
A ---5-----3-----1-----0---1---0h1p0h1h3p1--------|
D ---5-----3-----1-----0---1---0h1p0h1h3p1--------|

E ---------------6--------|
B ---------------6--------|
G ---------------8--------|
D ---5-----3-----8--------|
A ---5-----3-----6--------|
D ---5-----3--------------|

[ Tab from: http://www.guitartabs.cc/tabs/m/myopic_son/hazel_tab_ver_2.html ]
Solo
E ---------------------------------------------------------------------------|
B ---13b(15)--13b(15)--13b(15)r13p10-----------------------------------------|
G ------------------------------------12--12b(14)r12--10h12p10------10-------|
D --------------------------------------------------------------12------12---|
A ---------------------------------------------------------------------------|
D ---------------------------------------------------------------------------|

E ----------------------------------------------------------------|
B ----------------------------------------------------------------|
G -----------------------------------10--12--10--12--12b(14)r12---|
D ---10--11--12--------------10--12-------------------------------|
A ---------------10--11--12---------------------------------------|
D ----------------------------------------------------------------|

E ----------------------------------------------------------------|
B ----------------------------------------------------------------|
G ---10h12p10------------10h12p10-----------10h12p10--10~~~-------|
D -------------12p10h12------------12p10h12-----------------------|
A ----------------------------------------------------------------|
D ----------------------------------------------------------------|

E ----------------------------------------------------------------|
B ----------------------------------------------------------------|
G ----------------------------------------------------------------|
D ---12--10--12--10--------------------------10-------------------|
A -------------------12--10b(12)r10--8h10p8------10b(12)r10--8--5-|
D ----------------------------------------------------------------|

E -----------8----------------------------------------------------------------|
B ---6p5--6-----8b(10)r8--6h8p6--5-6--------6h8--8--6--8b(10)r8--6-------6----|
G -----------------------------------5h6h7--------------------------7p5-----7-|
D ----------------------------------------------------------------------------|
A ----------------------------------------------------------------------------|
D ----------------------------------------------------------------------------|

E -----------------------------------------------------------------------------------------------------|
B -----------------------------------------------------------8--10--8--10b(11)r10b(11)r10b(11)r10--8---|
G ------------------------5-----5--7/10--10-10--9--7--9--10--------------------------------------------|
D ----------3h5-5-3--5/7-----7-------------------------------------------------------------------------|
A ---3-4-5---------------------------------------------------------------------------------------------|
D -----------------------------------------------------------------------------------------------------|

Verse
Prechorus
Chorus
Verse
Prechorus
Chorus
Solo (Verse riff)
Chorus


===================================================================
==                    TABLATURE EXPLANATION                      ==
===================================================================

----------                            ----------|
----5h8--- Hammeron                   ----(8)---| Bent Note
----------                            ----------|
----5p8--- Pulloff                    ----------|

----------                            ----------|
----5/8--- Slide Up                   -----x----| Dead Note
----------                            ----------|
----5\8--- Slide Down                 ----------|

----------                            ||------|| Repeat Start & End
----5~~~-- Vibrato                    ||*----*||
----------                            ||*----*||
----------                            ||------||
Comments