Mymp - Would You Be My Girlfriend Chords & Tabs

 

Would You Be My Girlfriend Chords & Tabs

Mymp Chords & Tabs

Version: 2 Type: Tab

Would You Be My Girlfriend Tab

   
Title       : Would you be my girlfriend
Artist      : MYMP
Album       : Beyond acoustic

Ear tabber  : Walter Michael De la Cruz 
E-mail add 1: Walterfdelacruz@yahoo.com
E-mail add 2: Michaelfdelacruz@yahoo.com 
Contact no  : 09224012464
School      : Saint Louis University, Baguio city
Time Elapsed: 5:48 PM - 6:02 PM
Date	    : March 1, 2005


-----------------------------------------
Chord Pattern: (upstroke reggae pattern)|
-----------------------------------------


M       M   YY   YY   M       M    PPPP  
MM     MM    YY YY    MM     MM    P   P 
M M   M M     YYY     M M   M M    P   P
M  M M  M      Y      M  M M  M    PPPP 
M   M   M      Y      M   M   M    P
M       M O    Y   O  M       M O  P    O


Legend:

X Palm mute	

Intro:
        
          F#m          C#m
e|------2-2-2-2---|---4-4-4-4--------|
B|------2-2-2-2---|---5-5-5-5--------|
G|-X-X--2-2-2-2---|---6-6-6-6--------|
D|-X-X--4-4-4-4---|---6-6-6-6--------|  
A|-X-X------------|------------------|
E|-X-X------------|------------------|

          F#m           C#m 
e|------2-2-2-2---|---4-4-4-4--------|
B|------2-2-2-2---|---5-5-5-5--------|
G|------2-2-2-2---|---6-6-6-6--------|
D|------4-4-4-4---|---6-6-6-6--------|  
A|----------------|------------------|
E|----------------|------------------|

--------
Verse 1 |
--------

          F#m           C#m 
e|------2-2-2-2---|---4-4-4-4--------|
B|------2-2-2-2---|---5-5-5-5--------|
G|------2-2-2-2---|---6-6-6-6--------|
D|------4-4-4-4---|---6-6-6-6--------|  
A|----------------|------------------|
E|----------------|------------------|
          hey girl        can i have your number


          F#m           C#m 
e|------2-2-2-2---|---4-4-4-4--------|
B|------2-2-2-2---|---5-5-5-5--------|
G|------2-2-2-2---|---6-6-6-6--------|
D|------4-4-4-4---|---6-6-6-6--------|  
A|----------------|------------------|
E|----------------|------------------|
       hey girl            can i call you tonight


          F#m           C#m 
e|------2-2-2-2---|---4-4-4-4--------|
B|------2-2-2-2---|---5-5-5-5--------|
G|------2-2-2-2---|---6-6-6-6--------|
D|------4-4-4-4---|---6-6-6-6--------|  
A|----------------|------------------|
E|----------------|------------------|
         do i           come on too strong for you

      F#m           C#m 
e|------2-2-2-2---|---4-4-4-4--------|
B|------2-2-2-2---|---5-5-5-5--------|
G|------2-2-2-2---|---6-6-6-6--------|
D|------4-4-4-4---|---6-6-6-6--------|  
A|----------------|------------------|
E|----------------|------------------|
        i hope you wont turn me down



Refrain:

     Bm
e|--2---2---2---2--------------------|
B|--3---3---3---3--------------------|
G|--4---4---4---4--------------------|
D|--4---4---4---4--------------------|  
A|-----------------------------------|
E|-----------------------------------|
      i hope you're not surprised  

     F#m
e|--2---2---2---2--------------------|
B|--2---2---2---2--------------------|
G|--2---2---2---2--------------------|
D|--4---4---4---4--------------------|  
A|-----------------------------------|
E|-----------------------------------|
      that i made the first move


     Bm
e|--2---2---2---2--------------------|
B|--3---3---3---3--------------------|
G|--4---4---4---4--------------------|
D|--4---4---4---4--------------------|  
A|-----------------------------------|
E|-----------------------------------|
     i hope you realize

     F#m
e|--2---2---2---2--------------------|
B|--2---2---2---2--------------------|
G|--2---2---2---2--------------------|
D|--4---4---4---4--------------------|  
A|-----------------------------------|
E|-----------------------------------|
      that im into you


    Bm (Quick release) Rolling of bonggos
e|--2-----------------------|
B|--3-----------------------|
G|--4-----------------------|
D|--4-----------------------|  
A|--------------------------|
E|--------------------------|
    and i just want to ask you


cHORUS:

         A                       E
e|---0--0---0--0--------|-----0--0--0--0-------------|
B|---2--2---2--2--------|-----0--0--0--0-------------|
G|---2--2---2--2--------|-----1--1--1--1-------------|
D|---2--2---2--2--------|-----2--2--2--2-------------|  
A|----------------------|----------------------------|
E|----------------------|----------------------------|
    would you be my       girlfriend

          F#m                      D
e|---2--2---2--2--------|--------2-2--2-2------------|
B|---2--2---2--2--------|--------3-3--3-3------------|
G|---2--2---2--2--------|--------2-2--2-2------------|
D|---4--4---4--4--------|--------0-0--0-0------------|  
A|----------------------|----------------------------|
E|----------------------|----------------------------|
      would you be               my girl


      A                             E
e|---0--0---0--0----------|-----0--0--0--0-------------|
B|---2--2---2--2----------|-----0--0--0--0-------------|
G|---2--2---2--2----------|-----1--1--1--1-------------|
D|---2--2---2--2----------|-----2--2--2--2-------------|  
A|------------------------|----------------------------|
E|------------------------|----------------------------|
 im not typical im straightforward Im just practical & u know it

           F#m                      D
e|---2--2---2--2--------|--------2-2--2-2------------|
B|---2--2---2--2--------|--------3-3--3-3------------|
G|---2--2---2--2--------|--------2-2--2-2------------|
D|---4--4---4--4--------|--------0-0--0-0------------|  
A|----------------------|----------------------------|
E|----------------------|----------------------------| 
       i hope you're not         offended


         A                       E
e|---0--0---0--0--------|-----0--0--0--0-------------|
B|---2--2---2--2--------|-----0--0--0--0-------------|
G|---2--2---2--2--------|-----1--1--1--1-------------|
D|---2--2---2--2--------|-----2--2--2--2-------------|  
A|----------------------|----------------------------|
E|----------------------|----------------------------|
    would you be my       girlfriend

          F#m                      D
e|---2--2---2--2--------|--------2-2--2-2------------|
B|---2--2---2--2--------|--------3-3--3-3------------|
G|---2--2---2--2--------|--------2-2--2-2------------|
D|---4--4---4--4--------|--------0-0--0-0------------|  
A|----------------------|----------------------------|
E|----------------------|----------------------------|
      would you be               my girl


      A                             E
e|---0--0---0--0----------|-----0--0--0--0-------------|
B|---2--2---2--2----------|-----0--0--0--0-------------|
G|---2--2---2--2----------|-----1--1--1--1-------------|
D|---2--2---2--2----------|-----2--2--2--2-------------|  
A|------------------------|----------------------------|
E|------------------------|----------------------------|
 im not typical im straightforward Im just practical & u know it

           F#m                      D
e|---2--2---2--2--------|--------2-2--2-2------------|
B|---2--2---2--2--------|--------3-3--3-3------------|
G|---2--2---2--2--------|--------2-2--2-2------------|
D|---4--4---4--4--------|--------0-0--0-0------------|  
A|----------------------|----------------------------|
E|----------------------|----------------------------| 
       i hope you're not         offended



Verse 2: (Do tab in verse 1, Its just the same)

hey there
will you look this way
i like to see you every night
hey there
dont be afraid
hey girl
i just like to be yours

Refrain:

     Bm
e|--2---2---2---2--------------------|
B|--3---3---3---3--------------------|
G|--4---4---4---4--------------------|
D|--4---4---4---4--------------------|  
A|-----------------------------------|
E|-----------------------------------|
      i hope you're not surprised  

     F#m
e|--2---2---2---2--------------------|
B|--2---2---2---2--------------------|
G|--2---2---2---2--------------------|
D|--4---4---4---4--------------------|  
A|-----------------------------------|
E|-----------------------------------|
      that i made the first move


     Bm
e|--2---2---2---2--------------------|
B|--3---3---3---3--------------------|
G|--4---4---4---4--------------------|
D|--4---4---4---4--------------------|  
A|-----------------------------------|
E|-----------------------------------|
     i hope you realize

     F#m
e|--2---2---2---2--------------------|
B|--2---2---2---2--------------------|
G|--2---2---2---2--------------------|
D|--4---4---4---4--------------------|  
A|-----------------------------------|
E|-----------------------------------|
      that im into you

[ Tab from: http://www.guitartabs.cc/tabs/m/mymp/would_you_be_my_girlfriend_tab_ver_2.html ]
    Bm (Quick release) Rolling of bonggos
e|--2-----------------------|
B|--3-----------------------|
G|--4-----------------------|
D|--4-----------------------|  
A|--------------------------|
E|--------------------------|
    and i just want to ask you


cHORUS:

         A                       E
e|---0--0---0--0--------|-----0--0--0--0-------------|
B|---2--2---2--2--------|-----0--0--0--0-------------|
G|---2--2---2--2--------|-----1--1--1--1-------------|
D|---2--2---2--2--------|-----2--2--2--2-------------|  
A|----------------------|----------------------------|
E|----------------------|----------------------------|
    would you be my       girlfriend

          F#m                      D
e|---2--2---2--2--------|--------2-2--2-2------------|
B|---2--2---2--2--------|--------3-3--3-3------------|
G|---2--2---2--2--------|--------2-2--2-2------------|
D|---4--4---4--4--------|--------0-0--0-0------------|  
A|----------------------|----------------------------|
E|----------------------|----------------------------|
      would you be               my girl


      A                             E
e|---0--0---0--0----------|-----0--0--0--0-------------|
B|---2--2---2--2----------|-----0--0--0--0-------------|
G|---2--2---2--2----------|-----1--1--1--1-------------|
D|---2--2---2--2----------|-----2--2--2--2-------------|  
A|------------------------|----------------------------|
E|------------------------|----------------------------|
 im not typical im straightforward Im just practical & u know it

           F#m                      D
e|---2--2---2--2--------|--------2-2--2-2------------|
B|---2--2---2--2--------|--------3-3--3-3------------|
G|---2--2---2--2--------|--------2-2--2-2------------|
D|---4--4---4--4--------|--------0-0--0-0------------|  
A|----------------------|----------------------------|
E|----------------------|----------------------------| 
       i hope you're not         offended


         A                       E
e|---0--0---0--0--------|-----0--0--0--0-------------|
B|---2--2---2--2--------|-----0--0--0--0-------------|
G|---2--2---2--2--------|-----1--1--1--1-------------|
D|---2--2---2--2--------|-----2--2--2--2-------------|  
A|----------------------|----------------------------|
E|----------------------|----------------------------|
    would you be my       girlfriend

          F#m                      D
e|---2--2---2--2--------|--------2-2--2-2------------|
B|---2--2---2--2--------|--------3-3--3-3------------|
G|---2--2---2--2--------|--------2-2--2-2------------|
D|---4--4---4--4--------|--------0-0--0-0------------|  
A|----------------------|----------------------------|
E|----------------------|----------------------------|
      would you be               my girl


      A                             E
e|---0--0---0--0----------|-----0--0--0--0-------------|
B|---2--2---2--2----------|-----0--0--0--0-------------|
G|---2--2---2--2----------|-----1--1--1--1-------------|
D|---2--2---2--2----------|-----2--2--2--2-------------|  
A|------------------------|----------------------------|
E|------------------------|----------------------------|
 im not typical im straightforward Im just practical & u know it

           F#m                      D
e|---2--2---2--2--------|--------2-2--2-2------------|
B|---2--2---2--2--------|--------3-3--3-3------------|
G|---2--2---2--2--------|--------2-2--2-2------------|
D|---4--4---4--4--------|--------0-0--0-0------------|  
A|----------------------|----------------------------|
E|----------------------|----------------------------| 
       i hope you're not         offended


Bridge: Plucking here


     F#m                  C#m                  
e|-2--------2-----------4--4---------------|
B|-2------2---2---------5----5-------------|
G|-2----2---------------6------6-----------|
D|-4--------------------6------------------|  
A|-4--------------------4------------------|
E|-2---------------------------------------|
   i  dont  want  to  bother you

          Bm   E            A              
e|--------2----0------------0--0-----------|
B|--------3----0------------2----2---------|
G|--------4----1------------2------2-------|
D|--------4----2------------2--------------|  
A|--------2----2------------0--------------|
E|-------------0---------------------------|
    but   i   like     taking  chances


  F#m                  C#m                  
e|-2--------2-----------4--4---------------|
B|-2------2---2---------5----5-------------|
G|-2----2---------------6------6-----------|
D|-4--------------------6------------------|  
A|-4--------------------4------------------|
E|-2---------------------------------------|
  so if i could turn you up

          Bm   E                          
e|--------2----0-----------------------|
B|--------3----0-----------------------|
G|--------4----1-----------------------|
D|--------4----2-----------------------|  
A|--------2----2-----------------------|
E|-------------0-----------------------|
 i really just dont care

    E (quick release) 
e|--0----------------|
B|--0----------------|
G|--1----------------|
D|--2----------------|  
A|--2----------------|
E|--0----------------|
i just want to ask you

HORUS:

         A                       E
e|---0--0---0--0--------|-----0--0--0--0-------------|
B|---2--2---2--2--------|-----0--0--0--0-------------|
G|---2--2---2--2--------|-----1--1--1--1-------------|
D|---2--2---2--2--------|-----2--2--2--2-------------|  
A|----------------------|----------------------------|
E|----------------------|----------------------------|
    would you be my       girlfriend

          F#m                      D
e|---2--2---2--2--------|--------2-2--2-2------------|
B|---2--2---2--2--------|--------3-3--3-3------------|
G|---2--2---2--2--------|--------2-2--2-2------------|
D|---4--4---4--4--------|--------0-0--0-0------------|  
A|----------------------|----------------------------|
E|----------------------|----------------------------|
      would you be               my girl


      A                             E
e|---0--0---0--0----------|-----0--0--0--0-------------|
B|---2--2---2--2----------|-----0--0--0--0-------------|
G|---2--2---2--2----------|-----1--1--1--1-------------|
D|---2--2---2--2----------|-----2--2--2--2-------------|  
A|------------------------|----------------------------|
E|------------------------|----------------------------|
 im not typical im straightforward Im just practical & u know it

           F#m                      D
e|---2--2---2--2--------|--------2-2--2-2------------|
B|---2--2---2--2--------|--------3-3--3-3------------|
G|---2--2---2--2--------|--------2-2--2-2------------|
D|---4--4---4--4--------|--------0-0--0-0------------|  
A|----------------------|----------------------------|
E|----------------------|----------------------------| 
       i hope you're not         offended


         A                       E
e|---0--0---0--0--------|-----0--0--0--0-------------|
B|---2--2---2--2--------|-----0--0--0--0-------------|
G|---2--2---2--2--------|-----1--1--1--1-------------|
D|---2--2---2--2--------|-----2--2--2--2-------------|  
A|----------------------|----------------------------|
E|----------------------|----------------------------|
    would you be my       girlfriend

          F#m                      D
e|---2--2---2--2--------|--------2-2--2-2------------|
B|---2--2---2--2--------|--------3-3--3-3------------|
G|---2--2---2--2--------|--------2-2--2-2------------|
D|---4--4---4--4--------|--------0-0--0-0------------|  
A|----------------------|----------------------------|
E|----------------------|----------------------------|
      would you be               my girl


      A                             E
e|---0--0---0--0----------|-----0--0--0--0-------------|
B|---2--2---2--2----------|-----0--0--0--0-------------|
G|---2--2---2--2----------|-----1--1--1--1-------------|
D|---2--2---2--2----------|-----2--2--2--2-------------|  
A|------------------------|----------------------------|
E|------------------------|----------------------------|
 im not typical im straightforward Im just practical & u know it

           F#m                      D
e|---2--2---2--2--------|--------2-2--2-2------------|
B|---2--2---2--2--------|--------3-3--3-3------------|
G|---2--2---2--2--------|--------2-2--2-2------------|
D|---4--4---4--4--------|--------0-0--0-0------------|  
A|----------------------|----------------------------|
E|----------------------|----------------------------| 
       i hope you're not         offended




For comments send me a message in Friendster. 

E-mail add 1: Walterfdelacruz@yahoo.com
E-mail add 2: Michaelfdelacruz@yahoo.com 

And u Can also add me as your friend Or send me a testimonial.hehehe
God bless!