Mymp - Would You Be My Girlfriend Chords & Tabs

 

Would You Be My Girlfriend Chords & Tabs

Mymp Chords & Tabs

Version: 1 Type: Tab 0 ratings
1 star 2 stars 3 stars 4 stars 5 stars
comments

Would You Be My Girlfriend Tab

   
Song Name   : WOULD YOU BE MY GIRLFRIEND
Song Artist : MYMP
Album       : Various Songs
Tabbed By   : jdimpas@lexmark.com (Jan Michael Dimpas)
              Center for Industrial Technology & Enterprise(CITE)
 
            ----------------------------------
                WOULD YOU BE MY GIRLFRIEND
           -----------------------------------

     I get this with a few minutes, any comments will be accepted.

     This is for Busted Fuse Band in CITE.

     Comments Email me: jdimpas@lexmark.com (www.lexmark.com)

     Print this page using Lexmark Printers.


standard tunning:

	Chords Pattern: (upstroke reggae pattern)

	G: 355433
	D: X57775
       Am: 577555
	C: X35553

	

 Intro:
        G          D         Am         C

e|-----3-3--------5-5-------5-5--------3-3----------|
B|-----3-3--------7-7-------5-5--------5-5----------|
G|-----4-4--------7-7-------5-5--------5-5----------|
D|-----5-5--------7-7-------7-7--------5-5----------|  2X
A|-----5-5------------------7-7---------------------|
E|--------------------------------------------------|

I.

e|-----3-3--------5-5-------5-5--------3-3----------|
B|-----3-3--------7-7-------5-5--------5-5----------|
G|-----4-4--------7-7-------5-5--------5-5----------|
D|-----5-5--------7-7-------7-7--------5-5----------|  
A|-----5-5------------------7-7---------------------|
E|--------------------------------------------------|

    	hey girl can i have your number
	
e|-----3-3--------5-5-------5-5--------3-3----------|
B|-----3-3--------7-7-------5-5--------5-5----------|
G|-----4-4--------7-7-------5-5--------5-5----------|
D|-----5-5--------7-7-------7-7--------5-5----------|  
A|-----5-5------------------7-7---------------------|
E|--------------------------------------------------|

	hey girl can i call you tonight

e|-----3-3--------5-5-------5-5--------3-3----------|
B|-----3-3--------7-7-------5-5--------5-5----------|
G|-----4-4--------7-7-------5-5--------5-5----------|
D|-----5-5--------7-7-------7-7--------5-5----------|  
A|-----5-5------------------7-7---------------------|
E|--------------------------------------------------|

	do i come on too strong for you

e|-----3-3--------5-5-------5-5--------3-3----------|
B|-----3-3--------7-7-------5-5--------5-5----------|
G|-----4-4--------7-7-------5-5--------5-5----------|
D|-----5-5--------7-7-------7-7--------5-5----------|  
A|-----5-5------------------7-7---------------------|
E|--------------------------------------------------|

	i hope you wont turn me down

e|-----3-3--------5-5-------5-5--------3-3----------|
B|-----3-3--------7-7-------5-5--------5-5----------|
G|-----4-4--------7-7-------5-5--------5-5----------|
D|-----5-5--------7-7-------7-7--------5-5----------|  
A|-----5-5------------------7-7---------------------|
E|--------------------------------------------------|

i hope you're not surprised  that i made the first move

e|-----3-3--------5-5-------5-5--------3-3----------|
B|-----3-3--------7-7-------5-5--------5-5----------|
G|-----4-4--------7-7-------5-5--------5-5----------|
D|-----5-5--------7-7-------7-7--------5-5----------|  
A|-----5-5------------------7-7---------------------|
E|--------------------------------------------------|

i hope you realize that im into you

          Am ( Let it ring )
e|--------5----------|
B|--------5----------|
G|--------5----------|
D|--------7----------|  
A|--------7----------|
E|-------------------|


and i just want to ask you


cHORUS:

[ Tab from: http://www.guitartabs.cc/tabs/m/mymp/would_you_be_my_girlfriend_tab.html ]
 G          D         Am         C

e|-----3-3--------5-5-------5-5--------3-3----------|
B|-----3-3--------7-7-------5-5--------5-5----------|
G|-----4-4--------7-7-------5-5--------5-5----------|
D|-----5-5--------7-7-------7-7--------5-5----------|  
A|-----5-5------------------7-7---------------------|
E|--------------------------------------------------|

	would you be my girlfriend

 G          D         Am         C

e|-----3-3--------5-5-------5-5--------3-3----------|
B|-----3-3--------7-7-------5-5--------5-5----------|
G|-----4-4--------7-7-------5-5--------5-5----------|
D|-----5-5--------7-7-------7-7--------5-5----------|  
A|-----5-5------------------7-7---------------------|
E|--------------------------------------------------|

	would you be my girl

 G          D         Am         C

e|-----3-3--------5-5-------5-5--------3-3----------|
B|-----3-3--------7-7-------5-5--------5-5----------|
G|-----4-4--------7-7-------5-5--------5-5----------|
D|-----5-5--------7-7-------7-7--------5-5----------|  
A|-----5-5------------------7-7---------------------|
E|--------------------------------------------------|

im not typical im straightforward Im just practical and you know it

 G          D         Am         C

e|-----3-3--------5-5-------5-5--------3-3----------|
B|-----3-3--------7-7-------5-5--------5-5----------|
G|-----4-4--------7-7-------5-5--------5-5----------|
D|-----5-5--------7-7-------7-7--------5-5----------|  
A|-----5-5------------------7-7---------------------|
E|--------------------------------------------------|

	i hope you're not offendded

Repeat the Chorus twice.

II. Just the same pattern above:

hey there
will you look this way
i like to see you every night
hey there
dont be afraid
hey girl
i just like to be yours
i hope you're not surprised 
that i made the first move
i hope you realize that
im into you
and i just want to ask you

Repeat Chorus:

    Am                  D
e|--0------0------------2----2-------------|
B|--1--------1----------3------3-----------|
G|--2----------2--------2--------2---------|
D|--2-------------------0------------------|  
A|--0--------------------------------------|
E|-----------------------------------------|

   i  dont  want  to  bother you

 Am                  D
e|--0------0------------2----2-------------|
B|--1--------1----------3------3-----------|
G|--2----------2--------2--------2---------|
D|--2-------------------0------------------|  
A|--0--------------------------------------|
E|-----------------------------------------|


    but   i   like  taking  chances
 Am                  D
e|--0------0------------2----2-------------|
B|--1--------1----------3------3-----------|
G|--2----------2--------2--------2---------|
D|--2-------------------0------------------|  
A|--0--------------------------------------|
E|-----------------------------------------|

     so if i could turn you up

 Am                  D
e|--0------0------------2----2-------------|
B|--1--------1----------3------3-----------|
G|--2----------2--------2--------2---------|
D|--2-------------------0------------------|  
A|--0--------------------------------------|
E|-----------------------------------------|

     i really just dont care

    Am ( Let it ring )
e|-------0-----------|
B|-------1-----------|
G|-------2----------|
D|-------2-----------|  
A|-------0-----------|
E|-------------------|

i just want to ask you

Repeat Chorus:

Sounds great!! Email me..
Comments