Mymp - Would You Be My Girlfriend Chords & Tabs

 

Would You Be My Girlfriend Chords & Tabs

Mymp Chords & Tabs

Version: 1 Type: Bass Tab 0 ratings
1 star 2 stars 3 stars 4 stars 5 stars
comments

Would You Be My Girlfriend Bass Tab

Song Name   : WOULD YOU BE MY GIRLFRIEND
Song Artist : MYMP
Album       : Various Songs
Tabbed By   : jdimpas@lexmark.com (Jan Michael Dimpas)
              Center for Industrial Technology & Enterprise(CITE)
 
            ----------------------------------
                WOULD YOU BE MY GIRLFRIEND
           -----------------------------------

     I get this with a few minutes, any comments will be accepted.

     This is for Busted Fuse Band in CITE.

     Comments Email me: jdimpas@lexmark.com (www.lexmark.com)

     Print this page using Lexmark Printers.


Intro: NO Bass

I.

G -------------------------------------|
D -------------------------------------|
A ---------55-----------33-------------|
E ---33-----------55-------------------|
   

   hey girl can i have your number.....


G -----------|
D -----------|
A -----------|
E ------5----|

  and i just want to ask you


Chorus:

[ Tab from: http://www.guitartabs.cc/tabs/m/mymp/would_you_be_my_girlfriend_btab.html ]
G -------------------------------------|
D -------------------------------------|
A ---------55-----------33-------------|
E ---33-----------55-------------------|
   
	would you be my girlfriend.....

Repeat chorus twice:


II.



G -------------------------------------|
D -------------------------------------|
A ---------55-----------33-------------|
E ---33-----------55-------------------|
   
	hey there.....


G -----------|
D -----------|
A -----------|
E ------5----|

  and i just want to ask you



Bridge:



G -----------|
D -----------|
A -----------|
E ------5-5--|

 i  dont  want  to  bother you


G -----------|
D -----------|
A -----5-5---|
E -----------|

but  i like  taking  chances............


G -----------|
D -----------|
A -----------|
E ------5----|

  and i just want to ask you

Repeat Chorus:


Email Me:: or See me at my friendster: janmichael_dimpas2004 Yahoo Mail
Comments