Mymp - Waiting In Vain Chords & Tabs

 

Waiting In Vain Chords & Tabs

Mymp Chords & Tabs

Version: 5 Type: Tab 0 ratings
1 star 2 stars 3 stars 4 stars 5 stars
comments

Waiting In Vain Tab

   
Song: waiting in vain
Artist: MYMP
Tab by: boybitz
Tunning: standard

I listened to this song and wrote down what I think is right.

Intro/:
e----------------------------------------------|
b--------9--------9-----------9----------9-----|
g-----10--10---10--10----11-11-11---11-11-11---|
D---11-------11--------11---------11-----------|
A---------------------9----9-----9----9--------|
E--9----9---9----9-----------------------------|

verse:
From the very first time I rested my eyes on you boy
My heart said follow through
But I know now that I'm way down on your line
But the waiting feel is fine
So don't cheat me like a puppet on a string
Cause I know I do my thing
Don't talk to me as if you think I'm dumb
I wanna know where you're gonna go
I don't want to wait in vain for your love
I don't want to wait in vain for your love
I don't want to wait in vain for your love
I don't want to wait in vain for your love
----------------------------------------------|
--------9--------9-----------9----------9-----|
-----10--10---10--10----11-11-11---11-11-11---|
---11-------11--------11---------11-----------|
---------------------9----9-----9----9--------|
--9----9---9----9-----------------------------|

chorus: F#-G#-Fm-Ebm 2x
   -2--     -4--    -8---     -6--|
   -2---    -4--    -9---     -7--|
F# -3--  G# -5-- Fm -10-- Ebm -8--|
   -4--     -6--    -10--     -8--|
   -4--     -6--    -8---     -6--|
   -2--     -4--    -----     ----|

Summer is here, I'm still waiting there
Winter is here and I'm still waiting there, yeah, yeah

-------------------------|
-------------------------|
----------10-------------|
-11-13-13---13-11-11~----|
-------------------------|
-------------------------|

---------------------------------11-11~--9-9~-|
-----9--9-11~-9---9-11-9-11~-9------------11---|
-8/10-10--------10-------------10--------------|
-----------------------------------------------|
-----------------------------------------------|
-----------------------------------------------|

Verse: upstroke only.. two chords only(c#m-F#)
----------------------------|
----------------------------|
-10-10-10-10-11-11-11-11----| repeat as needed
-11-11-11-11-11-11-11-11----|
-11-11-11-11-9--9--9--9-----|
----------------------------|

Like I said
It's been three years since I've been knocking at your door
And I can still knock some more
Ooh boy, ooh boy
Is it feasible?
I wanna know now
For I can knock some more
You see in life I know

There's lots of grief
But your love is my relief, yeah
Tears in my eyes burn
Tears in my eyes burn
While I'm waiting, while I'm waiting for my turn, oh

I don't want to wait in vain for your love
-----------------------------|
-----------------------------|
------------10---------------|
-11/13-13-13--13-11~--------|
----------------13-----13-13-|
-----------------------------|
[ Tab from: http://www.guitartabs.cc/tabs/m/mymp/waiting_in_vain_tab_ver_5.html ]
I don't want to wait in vain for your love
-----------------------------|
-----------------------------|
------------10---------------|
-11/13-13-13--13-11~--------|
----------------13-----13-13-|
-----------------------------|

I don't want to wait in vain for your love
-----9----|
-9/11-9~--|
----------|
----------|
----------|
----------|

I don't want to wait in vain for your love
-----9----|
-9/11-9~--|
----------|
----------|
----------|
----------|

Summer is here, I'm still waiting there
Winter is here and I'm still waiting there
------------------------|
------------------------|
------------------------|
-13-13-11~-------------|
------13-----13-13------|
------------------------|

-----------------------------11/13-11~--|
----9--9-9--11-9-11~-9--9-8-9-----------|
-/10-10---------------------------------|
----------------------------------------|
----------------------------------------|
----------------------------------------|

no I.....
----------------------------|
----------------------------|
-10-------10----------------|
---13--13-----11~-----------|
------------13--------------|
----------------------------|

no I.....vain
-----------------------------------------------|
-/11-11--9-9-----------------------------------|
------------10^-8h10-8-8--6-6--6-6-------------|
--------------------------------8--------------|
-----------------------------------------------|
-----------------------------------------------|

no no no I...
-----------------------11/13-11~--9-9~------|
-9-9--11-9-11~-9--9-9-----------------------|
---------------------10---------------------|
--------------------------------------------|
--------------------------------------------|
--------------------------------------------|

its your love...
-------------16/18-16~-16----|
-14~-16~-18~-----------------|
-----------------------------|
-----------------------------|
-----------------------------|
-----------------------------|

its your love...
-------------------------------------------------|
-------------------------------------------------|
-13^^--13^^---13^^-15--15------------------------|
-----15-----15-----------13--15-13~-11--11-11~--|
-------------------------------13----------------|
-------------------------------------------------|

I don't wanna...
----------------------------------|
----------------------------------|
-------10-------------------------|
-11/13---13-13~-11---11-11~------|
-----------13-------13------------|
----------------------------------|

I don't wanna...
----------------------------------|
----------------------------------|
-------10-------------------------|
-11/13---13-13~-11--11-11~-------|
-----------13---------------------|
----------------------------------|

I don't wanna..
------8------------------|
-9/11--11-9h11p9-99~-----|
-------------------------|
-------------------------|
-------------------------|
-------------------------|

I don't wanna..
----------------------------|
-9/11--11-------------------|
---------10-8--10-8--6-6~---|
-----------------8----------|
----------------------------|
----------------------------|

that's it.
This is not 100% correct. some parts is confusing.
But I hope that this will help.
For any correction, email me at boybitz63@yahoo.com
Comments