Mymp - True Colors Chords & Tabs

 

True Colors Chords & Tabs

Mymp Chords & Tabs

Version: 2 Type: Tab 0 ratings
1 star 2 stars 3 stars 4 stars 5 stars
comments

True Colors Tab

Song		:	True colors
Artist		:	MYMP
Album		:	Versions
Tabbed by	:	Walter Michael De la Cruz - SLU, Baguio City -
                         09224012464

E|------------------3-------3----3---------------------------|
B|-------------1---------------------------------------------|
G|---------------2----2-------0----0-------------------------|
D|-----------------------------------------------------------|
A|-------------0---------------------------------------------|
E|--------------------------3--------------------------------|
  You with the s---a--d    e-ye--s    

E|--3------------------0----------------------3--------------|
B|-------3----------------1-----------------1----(1)--t------|
G|---------------------------0------------2-----------a------|
D|--------------------------------------3-------------p------|
A|--3-------------3------------------------------------------|
E|-----------------------------------------------------------|
   Don't be  dis--cou---rage through I realize

E|------------0------------3-----------------0--------------|
B|------------1----t---------3-t-------------1--t-----------|
G|------------2----a-----------a-------------0--a-----------|
D|-----------------p-----------p----------------p-----------|
A|------0---------------------------------3-----------------|
E|--------------------3-------------------------------------|
  It's Hard  to  take cou-rage     in  a  world

E|-------------------------3---------------3----------------|
B|------------6------------3---t---------------1------------|
G|------------5----------------a----------------------------|
D|------------7----------------p------3---------------------|
A|--------5----------3--------------------------------------|
E|----------------------------------------------------------|
  Full of people ,  You   can lose   sight of it all
[ Tab from: http://www.guitartabs.cc/tabs/m/mymp/true_colors_tab_ver_2.html ]
E|--------------0-----------3--------------------------------|
B|--------------1--t----------3--t---------------------------|
G|--------------2--a-------------a---------------------------|
D|-----------------p-------------p---------------------------|
A|---------0-------------------------------------------------|
E|----------------------3------------------------------------|
  And the darkness      in-side you  


E|---------------------0-------------------------------------|
B|----------1-1--t-------1--t--------------------------------|
G|---------------a----------a--------------------------------|
D|----------3-3--p----------p--------------------------------|
A|-------------------3---------------------------------------|
E|-----------------------------------------------------------|
   Make me feel so  s-m-a-ll

Chorus:


E|----------------------------0------------------------------|
B|------------------------t-----1--t--------1-1--------1-----|
G|------------------2--2--a--------a--------2-2--t-----2-----|
D|------------------3--3--p--------p--------0-0--a-----0-----|
A|------------------3--3----3--------------------p-----------|
E|------------------1--1--------------------3-3--------3-----|
  But I'll see your True   colors        shining    through


E|--------------------------0--------------------------------|
B|--------------------t-------1---1--1---t--1--1---1---------|
G|--------------2--2--a-----------2--2---a--2--2---2---------|
D|--------------3--3--p-----------3--3---p--3--3---3---------|
A|--------------3--3-----3--------3--3------3--3---3---------|
E|--------------1--1--------------1--1------1--1---1---------|

   I'll see you true     colors  that's why I love you


E|------------------0-------0---0---------1------------------|
B|--------------------1-----0---0-----------0-t--------------|
G|----2----2--t----------t--0---0-------------a--------------|
D|----3----3--a----------a--2---2-------------p--------------|
A|----3----3--p--3-------p--2---2------0---------------------|
E|----1----1----------------0---0----------------------------|
  So don't Be   afraid  to let them    sho-w    your

E|-------------0---------------0---------0------------------|
B|-------t-------1---------------1-------1------------------|
G|-2--2--a------------2-2-t--------------2------------------|
D|-3--3--p------------3-3-a--------------3------------------|
A|-3--3-----3---------3-3-p--3-----------0------------------|
E|-1--1---------------1-1----------------0------------------|
   True     colors,  true  colors   so beautiful 


for comments send me a message in friendster Walterfdelacruz@yahoo.com
Comments