Mymp - Torpe Song 5 Chords & Tabs

 

Torpe Song 5 Chords & Tabs

Mymp Chords & Tabs

Version: 1 Type: Chords 0 ratings
1 star 2 stars 3 stars 4 stars 5 stars
comments

Torpe Song 5 Chords

   
Song: Torpe Song #5
Artist: M.Y.M.P (Make Your Momma Proud)
Album: Soulful Acoustic
Tabbed by: Patrick Lawrence Caasi
E-Mail: www.pennywise_018@yahoo.com

Note: After hours of tabbing, I finally got it! Just listen to the album to get it right.
And if you are a great guitarist, you can combine guitar 1 and guitar 2 at the same time.

Intro:

Guitar 1:

     F    G	   Bb
e|---------------------1----------------------|
B|--1-1-1-0-0-3------3-1---3--1---------------|
G|------------------3-------3-----------------|
D|--------------------------------------------|
A|----------------1--------1--1---------------|
E|--1-1-1/3-3-3-------------------------------|
Repeat

Guitar 2:
Base
(This is done with the F chord)
e|--------------------|       
B|--------------------|
G|----2222--0---------|    
D|--------3--3--------|
A|---3----------------|
E|--1-----------------|  
Repeat this 2x

End with this:
e|--------------------|       
B|--------------------|
G|----2222--0---------|    
D|--------3--3--------|
A|---3----------5-3---|
E|--1-----------------|  


Solo Part:(guitar 1 will play)
e|-------------------------------------------|       
B|--5h6-5-3-5-3-1----------------------------|
G|---------------2-3-5-5/7-------------------|    
D|-------------------------3-5---------------|
A|-------------------------------------------|
E|-------------------------------------------|  






Start Verse: 
(Don't strum it pls. You can use the intro for the verse and just add rhythm on it.

Verse 1: 
F				G
Kung di ngayon kailan pa, bukas o makalawa 
Bb
Baka pa makawala pa... 
F			  G
Naiparating mo na ba? Naihayag mo na ba? 
Bb	
Nakapagtapat ka na ba? Ano ba?


Refrain:
F             G    F                     Bb
Di nya malalaman, di mahuhulaan damdamin mo
F             G     F                    Bb
Kung di sasabihin, kaya ngat sabihin mo na

[ Tab from: http://www.guitartabs.cc/tabs/m/mymp/torpe_song_5_crd.html ]
Verse 2:
F                  G
May patula-tula pa, di naman nya nabasa,
Bb
Baka pa matulala ka
F                    G
Pag may ibang pumorma, mauunahan ka pa

Bb
Baka magmukha kang tanga di ba?


Refrain:
F             G                     F           Bb
Di nya malalaman (di ko malalaman), di mahuhulaan damdamin mo
F             G     			F           Bb
Kung di sasabihin (sabihin mo na), kaya ngat sabihin mo na


Chorus: (Oh yes, you can strum this!)
F                 G                     Eb
Sige na, lakad na, sugod na, baka mawala pa,
			F
Kayang-kaya mo yan!
F                 G                      Bb
Sige na, lakad na, sugod na, kapal mukha na!
                F
Kayang-kaya mo yan.

Do Intro:

Verse 2:
F                  G
May patula-tula pa, di naman nya nabasa,
Bb
Baka pa matulala ka
F                    G
Pag may ibang pumorma, mauunahan ka pa

Bb
Baka magmukha kang tanga di ba?


Refrain:
F             G                     F           Bb
Di nya malalaman (di ko malalaman), di mahuhulaan damdamin mo
F             G     			F           Bb
Kung di sasabihin (sabihin mo na), kaya ngat sabihin mo na


Chorus:
F                 G                     Eb
Sige na, lakad na, sugod na, baka mawala pa,
			F
Kayang-kaya mo yan!
F                 G                      Bb
Sige na, lakad na, sugod na, kapal mukha na!
                F
Kayang-kaya mo yan.


Chorus 2:
F                 G                     Eb
Sige na, lakad na, sugod na, baka mawala pa,
			F
Kayang-kaya mo yan!
F                 G                      Bb
Sige na, lakad na, sugod na, Baka sagutin ka!
                F
Sana nga oh sana!

(Do intro tabs here)
Kayang kaya mo yan...


By the way, the song is dedicated to me, at sa lahat ng mga torpe dyan!!! Thanks for
downloading my tab. (Penny)
Comments