Mymp - Till They Take My Heart Away Chords & Tabs

 

Till They Take My Heart Away Chords & Tabs

Mymp Chords & Tabs

Version: 2 Type: Tab

Till They Take My Heart Away Tab

Till they take my heart away
MYMP

tabbed by j.abordo (email:jamaica_nicole@yahoo.com)
Tuning: Regular

Intro:
e-----0------------0-----|--------0--------0-----|-----0------------0------|
B-------------------0----|-------------0---0-----|------------------0------|
G---8---8---8----8---8---|---9-8-8----6--6-6-6-6-|---8---8---8---8-8--8-8--|
D----9---7-7------9---9--|--9-9-9----7-----------|----9---7-7---9-------9--|
A--7------------7------9-|-----------------------|--7--------------------9-|
E-0------------0---------|-9--------5------------|-0-----------0-----------|

                         Verse 1
e----------------------0-|------0--------0----|---------------------0------|
B--------7------------0--|--------------------|-------7--7-------0--0------|
G----9-------9-------6---|---8--------8----8--|----9-----------6----6------|
D--9---9---9---9---7-----|-----9--------9---9-|--9---9--9----7-------------|
A----------------5-------|--7--------7--------|------------5---------------|
E-9----------------------|-0-------0----------|-9--------------------------|
                           I look into your eyes so far away

e------0-----------0----|--------------------0-----|-------------------------|
B-------------------0---|-------4----------0-------|---0-0---2-2-----2-2-----|
G---8----8------8----8--|----4---4-4-------6---6---|---1-1---2-2-tap-2-2-----|
D----9----9------9----9-|---6-6-----6----7-------7-|--2---2------------------|
A--7----------7---------|-4-----------4/5----------|-0-----0-2-------2-------|
E-0----------0----------|--------------------------|-------------------------|
There's trouble on your mind,you're losing faith.. Hey now let me hold you

e---------0-------------------|---------2-----------------------------------|
B-------0--0------5-4------4--|-----------2-----2--2---2--------------------|
G-----1-----1-----4---4-4-----|-------2-----2------2---2--------------------|
D---2--------2------------6---|-----2---------2------2----------------------|
A---------------4-------------|---4----------------2------------------------|
E-0---------------------------|-2-------------------------------------------|
It will be ok cause i will love you till they take my heart away

e------0---------0---0---|-------------------0------|---------------0-------|
B------------------------|-------4----------0---0---|---0-0--0-----0-0-0----|
G---8---8-----8----8--8--|----4----4-------6---6----|---1---1-----1----1-1--|
D----9---9-----9-------9-|---6-6----6-----7-------7-|--1---------1--------1-|
A--7---------7-----------|-4----------4/5-----------|-----------------------|
E-0---------0------------|--------------------------|-0---------0-----------|
Remember when you called and said goodbye...You though we'd lost it all

e---------------0-----|-----------0-----------------------------------------|
B---4-----------0-----|--0-----0--0-------2R-2R-2--2------------------------|
G---4-4-----6-6---6---|--1-tap-1----tap---2R-2R-2--2-tap--4-4-tap-4--4-tap--|
D--6----6---7-------7-|--2-----2-2------------------------4-4--------4------|
A-4------4/5----------|-0---------------0-2R-2R-2-2-------------------------|
E---------------------|-----------------------------------4-------4-4-------|
and so did I..But even if i'd lost you it will be the same

                                   Chorus:
e---------------|-----------------|-----------------------------------------|
B---4h5-4-----4-|---2-2-----2-2-4-|-2-2--------2R-2--2-----2R-2--2R-2--2-2--|
G---4----4----4-|---1-1---2-2-2-4-|-1-1-tap-1--1R-1--1--1--2R-2--2R-2--2-2--|
D--6-------6-6--|--2------2-------|-----------------2-----------------------|
A-4-------------|-0---------2-2---|-0---------0--------0--2-----2----2--2---|
E---------------|-------0-2-------|-----------------------------------------|
'cause i will love you till they take my heart away...believe..


e------------------------------------|-------------------------2---2-------|
B----------------------5-4----4--4---|---2-------2---2---2---2-2---2-2-----|
G--4R-4--4R-4--4-------4-4-4--4--4---|-2-2-tap---2---2---2---2-2---2-2-----|
D--4R-4--4R-4--4------6-----6---6----|-2-------2-2-----------4-------4-----|
A-------------------4--------------4-|-4-------4-------4-----2---2---------|
E-4-----4-----4--4-------------------|-2-------2---2---2---2---------------|
im here to stay 'cause i will love you till they take my heart away.
[ Tab from: http://www.guitartabs.cc/tabs/m/mymp/till_they_take_my_heart_away_tab_ver_2.html ]

e-------0------------0--------|-------------------------0------------------|
B-----------------------------|-----5-4-----4----------0-------------------|
G----8----8-8-----8----8-8----|-----4---4-----4------6---------------------|
D-----9----9-9---9-9------9---|---6------6----------7----------------------|
A---7----------------------7--|-4---------4-----4/5------------------------|
E-0-------------0-------------|--------------------------------------------|
                   ooohhh....

VERSE 2

e-----0--------0-----|---------------0--|---------0---------------0--------|
B--------------------|----4--------0----|----------------------------------|
G---8---8---8----8---|---4-4-----6-6----|-----8-----8-8-------8-----8------|
D--9-9-----9-9-----9-|--6-------7-------|-------9-----9-9-------9----9-----|
A--------------------|-4-----4/5--------|---7---------------7--------------|
E-0-------0----------|------------------|-0----------------0---------------|
Now its stronger than before we made it through,and i've never felt more sure


e-----------------0-----|------0-------------|------0-------------------------|
B-----4-4-------0-------|------2---2-2-----2-|--------0---------5-4------4----|
G-----4-4-------6-------|----1-----2-2-tap-2-|-----2----2-----------4-4--4----|
D---6---------7---------|---2----------------|---4-------4R----6----------6---|
A-4-------4/5-------5-5-|-0------0-2-------2-|--2----------2--4---------4-----|
E-----------------------|--------------------|-0------------------------------|
because of you...       Hey now are you listening can you hear me say?

e------0--------------|-----------------------------------------------------|
B----0---------2--2-4-|-2-2-----2-2--2---2----2-2-----2-2--2---2------------|
G----1-------2-2--2-4-|-1-1-----1-1--1---1----2-2-tap-2-2--2---2------------|
D---2--------2-2--2---|-----tap--------2------2--------------2--------------|
A-0------0-0-4----2---|-0-------0---0------0--2-------2---2------2----------|
E------------2--------|-----------------------------------------------------|
casue i will love you till they take my heart away...believe....

e---0----------0----------------------|----------------------------2----2---|
B---0-------0--0--0----4h5-4---4--4---|-2-2---2-2--2--2---2-2----2-2--2-2---|
G-4-4-tap-4-4--4--4----4----4--4--4---|-1-1---1-1--1--1---2-2----2-2--2-----|
D-4---tap-4----------6-------6------6-|----tap-------2----2--tap-2---2------|
A-------------------4------------4----|-0-----0---0-----0-2------2-----2-2/-|
E-4---tap-4--4---4--------------------|-------------------------------------|
Im here to stay...'cause i will love you till they take my heart away..


Bridge: Strumming
e-5---4-----4-----|--------4--|--2--4--6--6----|-----4/62-4-|----6----------|
B-7---5-7p5-4(5)--|--2--4--4--|--2--4--6--6(7)-|--4--4/64-4-|-6--6(7)-------|
G-6---4-----4-----|--2--4--4--|--3--4--6--6----|--4--4/63-4-|-6--6----------|
D-7---6-----6-----|--2--4--6--|--4--6--6--8----|--4--6/84-4-|-6--8----------|
A-5---4-----4-----|--4--6--4--|--2--4--8--6----|--6--4/62-4-|-8--6----------|
E-----------------|--2--4------|--------6-------|--4----------|-6-----------|
                                          ..Believe in me im here to stay..


e--4-----------------------------4----4---------2------4--------6-----------|
B--4-----------------------------4----6---------2------4-----6--7-----------|
G--4-----------------------------4----4---------3------4-----6--6-----------|
D--4-----------------------------6----6---------4------4-----6--8-----------|
A--6-----------------------------4----4---------2------4-----8--6-----------|
E--4---------------------------------------------------------6--------------|
'cause i will love you till they take my heart away...away...away...


e--4--4---|---------2---------------2------|-----2-------------4------|---|
B--4--4---|--------2--2-----------2--2-----|----4--4----------4--4----|---|
G--4--4-4-|------3------3---3----3-----3---|---3----3--------4----4---|-3-|
D--4--4---|----4----------4-----4-------4--|--4-------------4------4--|-4-|
A--6--4---|------------------------------4-|-2--------2-2-4---------4-|-4-|
E--4------|-2------------------2-----------|--------------------------|-2-|
'cause i will love you till they take my heart away..


* R means release the string(s)or make it sound a little muted.
Figure it out.
questions? please e-mail.