Mymp - Tell Me Where It Hurts Chords & Tabs

 

Tell Me Where It Hurts Chords & Tabs

Mymp Chords & Tabs

Version: 6 Type: Tab 0 ratings
1 star 2 stars 3 stars 4 stars 5 stars
comments

Tell Me Where It Hurts Tab

Tell Me Where It Hurts
-M.y.m.p.

tabbed by Charles Celestino *charles_111703@yahoo.com*
(yehey! register na ako!)
hello to rowan,mikka,tiffany and all of you!!

vote nyo plz!!=)


intro:
e|-------------------------------------------------------|
B|-------------------------------------------------------|
G|-------------------------------------------------------|
D|--7----------------------------------------------------|
A|----8s10-10-10-8-10-8-10-10s12--12---------------------|
E|-------------------------------------------------------|

e|-------------------------------------------------------|
B|-------------------------------------------------------|
G|-------------------------------------------------------|
D|--7-----------------------7----------------------------|
A|----8s10-10-10-8----8-10-------------------------------|
E|-----------------10------------------------------------|

[ Tab from: http://www.guitartabs.cc/tabs/m/mymp/tell_me_where_it_hurts_tab_ver_6.html ]
this is the lead part of the song.. 
e|-------------------------------------------------------|
B|-------------------------------------------------------|
G|-------------------------------------------------------|
D|--10---------------12----------------------------------|
A|-----11s13-13-13-11--13p-13-13-15-13-11----------------|
E|-------------------------------------------------------|

e|-------------------------------------------------------|
B|-------------------------------------------------------|
G|-------------------------------------------------------|
D|--5s7--3---5s7--3---5-5---5s7---3-3h5------------------|
A|-------------------------------------------------------|
E|--8s10-6---8s10-6---8--8--8s10-------------------------|

e|-------------------------------------------------------|
B|-------------------------------------------------------|
G|--3---------5------------------------------------------|
D|----5-5-5-3---5-5s7-7s8--------------------------------|
A|-------------------------6-----------------------------|
E|-------------------------------------------------------|

enjoy!!
Comments