Mymp - Tell Me Where It Hurts Chords & Tabs

 

Tell Me Where It Hurts Chords & Tabs

Mymp Chords & Tabs

Version: 5 Type: Tab 0 ratings
1 star 2 stars 3 stars 4 stars 5 stars
comments

Tell Me Where It Hurts Tab

Tell Me Where It Hurts
M.Y.M.P.

Intro

e|----------------------------------------------------------------|
B|---8/10-10-10-10-10-8-8/10-10/12-12---8/10-10-10-8-15-8-8/10----|
G|-7----------------------------------7---------------------------|
D|-------------------------------------------------------------7--|
A|----------------------------------------------------------------|
E|----------------------------------------------------------------|

Verse

e|-X-------------X-------------X--|
B|-10------------7-------------10-|
G|-12------------9-------------12-|
D|-12------------9-------------12-|
A|---------------8----------------|
E|--------------------------------|
"why is that sad look in your eyes......"

Refrain

e|-X-------------X-------------X-|
B|-7-------------3-------------5-|
G|-9-------------5-------------7-|
D|-9-------------5-------------7-|
A|-8-------------3-------------5-|
E|---------------3-------------5-|
"is it your heart......"

Chorus
[ Tab from: http://www.guitartabs.cc/tabs/m/mymp/tell_me_where_it_hurts_tab_ver_5.html ]
e|-X-------------X-------------X-------------X-------------X--|
B|-10------------7-------------3-------------5-------------10-|
G|-12------------9-------------5-------------7-------------12-|
D|-12------------9-------------5-------------7-------------12-|
A|---------------8-------------3-------------5----------------|
E|-----------------------------3-------------5----------------|
"why don't you tell me where it hurts now baby....."

Solo

e|-------------------------------------------------------------------------------------------|
B|----11/13-13-13-11----11/13-13-13/15-13-11-13-13/15-11-13-13/15-11-13-13-13-13-13/15-13-11-|
G|-10----------------10----------------------------------------------------------------------|
D|-------------------------------------------------------------------------------------------|
A|-------------------------------------------------------------------------------------------|
E|-------------------------------------------------------------------------------------------|

e|--------------------------------|
B|--------------------------------|
G|--------------------------------|
D|---8/10-10-10-8---8/10-12-13-15-|
A|-8--------------8---------------|
E|--------------------------------|

Outro

e|----------------------------------------------------------------|
B|---8/10-10-10-10-10-8-8/10-10/12-12---8/10-10-10-8-15-8-8/10----|
G|-7----------------------------------7---------------------------|
D|-------------------------------------------------------------7--|
A|----------------------------------------------------------------|
E|----------------------------------------------------------------|
Comments