Mymp - Tell Me Where It Hurts Chords & Tabs

 

Tell Me Where It Hurts Chords & Tabs

Mymp Chords & Tabs

Version: 1 Type: Chords 6 ratings
1 star 2 stars 3 stars 4 stars 5 stars
comments

Tell Me Where It Hurts Chords

   
Song         : Tell me where it hurts
Artist       : MYMP
Album        : Behind Acoustics

Transcribe by: Walter Michael De la Cruz - SLU Baguio City - 09224012464
              (Walterfdelacruz@yahoo.com)

Tabbed       : March 1, 2005

Intro:

E|--------------------------------------------8h10-----------------------|
B|--3s10-10-10-8-10s12—12---3s10-10-10-10-10-8-------8-------------------|
G|-----------------------------------------------------------------------|
D|-----------------------------------------------------------------------|
A|-----------------------------------------------------------------------|
E|-----------------------------------------------------------------------|


Chords used:

       G                  Em5                C9             EbM7
 |-----3-----|        |----3-----|       |----3----|     |---6----|
 |-----3-----|        |----3-----|       |----3----|     |---8----|
 |-----4-----|        |----0-----|       |----0----|     |---7----|
 |-----5-----|        |----2-----|       |----2----|     |---8----|
 |-----5-----|        |----2-----|       |----3----|     |---6----|
 |-----3-----|        |----0-----|       |----0----|     |--------|


      CM5                  D5                
 |-----3-----|        |----5-----|       
 |-----3-----|        |----5-----|       
 |-----4-----|        |----5-----|       
 |-----5-----|        |----7-----|       
 |-----3-----|        |----5-----|       
 |-----------|        |----------|       



Verse 1

G
Why is that sad look in your eyes
Why are you crying?

C9
Tell me now, tell me now
Tell me, why you're feelin' this way

G
I hate to see you so down, oh baby!
[ Tab from: http://www.guitartabs.cc/tabs/m/mymp/tell_me_where_it_hurts_crd.html ]
C9           Em5
Is it your heart
Oh, that's breakin' all in pieces

C9          Em5
Makin' you cry

EbM7
Makin' you feel blue
Is there anything that I can do

CHORUS:
 	      G
Why don't you tell me where it hurts now, baby
         Em5
And I'll do my best to make it better
          CM5 		      D5
Yes, I'll do my best to make the tears all go away
          G
Just tell me where it hurts
Now, tell me

           Em5
And I love you with a love so tender
          CM5
Oh and if you let me stay
      D5
I'll love all of the hurt away


Verse 2: 

G
Where are all those tears coming from
Why are they falling?

C9
somebody, somebody, somebody leave your heart in the cold

G
You just need somebody to hold on, baby
 
 C9          Em5
(Give me a chance)


To put back all the pieces

C9                 Em5
Take hold of your heart

  EbM7
Make it just like new
There's so many things that I can do



(Repeat chorus)

C9           Em5
Is it your heart
Oh, that's breakin' all in pieces


C9          Em5
Makin' you cry

EbM7
Makin' you feel blue
Is there anything that I can do

CHORUS: G-Em5-C9-D

Tell me, tell me, tell me, tell me baby
Tell me, tell me, tell me, tell me
And I'll do my best to make it better
Yes, I'll do my best to make the tears all go away
Just tell me where it hurts
Now, tell me
And I love you with a love so tender
Oh, and if you let me stay
I'll love all of the hurt away

Comments,questions?? send me a message in friendster at Walterfdelacruz@yahoo.com or you 
text me or call me at 09224012464
Comments