Mymp - Tell Me Where It Hurts Chords & Tabs

 

Tell Me Where It Hurts Chords & Tabs

Mymp Chords & Tabs

Version: 1 Type: Bass Tab 0 ratings
1 star 2 stars 3 stars 4 stars 5 stars
comments

Tell Me Where It Hurts Bass Tab

   
Tell me where it hurts[Bass tablature]
MYMP

Verse:

G|------------------------------------------------------|
D|------------------------------------------------------|
A|----------------3-3-3-3-3-3-3-3-----------------------|
E|--3-3-3-3-3-3-3---------------------------------------|

[2x e2 parekoy!]

[Bago mag chorus]
G|------------------------------------------------------|
D|------------------------------------------------------|
A|--3-2-2--2-2-2-2--3-2-2-2--3-5------------------------|
E|------------------------------------------------------|
[ Tab from: http://www.guitartabs.cc/tabs/m/mymp/tell_me_where_it_hurts_btab.html ]
[Chorus:]
G|------------------------------------------------------|
D|------------------------------------------------------|
A|------------------------------------------------------|
E|--3-3-3--3-3-3-3-2--0-0-0-0-0-0-0---------------------|

G|------------------------------------------------------|
D|------------------------------------------------------|
A|--0-3-3-3-3s5-----------------------------------------|
E|------------------------------------------------------|

[2x e2 mga pre tpus ulitn nyu nlang ung sa verse1 then pati ung sa chorus?]

im not sure of it...
kyu nlang po ang nlang po ang kumuha ng beat/rythm @ mag judge ok??

BY: JV Espeleta
blue_cavalier_jv_91@yahoo.com[friendster/Yahoo messenger]

Comments