Mymp - Sway Chords & Tabs

 

Sway Chords & Tabs

Mymp Chords & Tabs

Version: 1 Type: Bass Tab

Sway Bass Tab

  this tab kapa ko lng noong battle of bands doon sa san juan sa m.mla para to kay 
at sa nuitri-band taubikal at bk band

hope na makuha nyo madali lng to!

g-----------------------------------------------------------------------|
b--------------------------------------------------      timing lng 4/4-|
a-12/----------4-444-44--5-555-55--5/7---7-777-77h8---------------------|
e-----5-555-55----------------------------------------------------------|

[ Tab from: http://www.guitartabs.cc/tabs/m/mymp/sway_btab.html ]
g-------------------------------------------------------|
b-------------------------------------------------------|     2x
a-------------4-444-44--5-555-55--5/7---7-777-77h8------|
e-2-222-22----------------------------------------------|

chorus!na

g-----------------------------------------|
b-----------------------------------------|
a-----------4-444-44--5-555-55-7-777-77h8-|
e-5-555-55--------------------------------|

yan na pag my problem mail me ha!! mauler222000@yahoo.com


oong pala ako si cristo van rey b.dono bassit ng lahat ng mga banda sa taas