Mymp - Say You Love Me Chords & Tabs

 

Say You Love Me Chords & Tabs

Mymp Chords & Tabs

Version: 3 Type: Tab 0 ratings
1 star 2 stars 3 stars 4 stars 5 stars
comments

Say You Love Me Tab

Tabbed by:Thomas Tanchanco

Date tabbed: 7/26/05 6:47pm

Dedicated to... Rovina Jane Santos.... I love u!!!!

Actually d ako nag tab nitong song na 2 si Walter Micheal ang nag Tab
Linagay ko lang pra completo. Idol ko si Walter Micheal e. Ang dinagdag
ko lang dito ay yung adlib wala kasi ako makita kaya napilitan ako kumapa
Well tuwa naman ako at least ngaun completo ko na sya!! Bwahahahah!!
Un adlib inde pwede sa Nylon guitars well pwede naman pero mahihirapan 
kayo guitar ko kasi 25 frets kaya ko nagawa un adlib hangang 15 fret
Hope u like it! add nio ako sa friendster :D:D tanchanco2000@yahoo.com 4
Suggestion :)




Into:
E|-------0-*----------------------------*-------------|
B|-----1---*--------8--t------6--t----3-*--3--5-------|
G|---2-----*------7----a------5--a----4-*-------------|
D|-3-------*----9------p------7--p------*-------------|
A|---------*--7-----------5-------------*--3----------|
E|---------*------------------------3---*-------------|


E|-------0-*----------------------------*-------------|
B|-----1---*--------8--t--5h6--t----3---*--3--5-------|
G|---2-----*------7----a-------a----4---*-------------|
D|-3-------*----9------p-------p--------*-------------|
A|---------*--7-----------5-------------*--3----------|
E|---------*----------------------3-----*-------------|


Verse1:
E|-------0-*----------------------------*-------------|
B|-----1---*--------8--t-------6------3-*--3--5-------|
G|---2-----*------7----a-------5------4-*-------------|
D|-3-------*----9------p-----7----------*-------------|
A|---------*--7-----------5-------------*--3----------|
E|---------*------------------------3---*-------------|
Don't you know that I want to be more than just your friend


E|-------0-*----------------------------*-------------|
B|-----1---*--------8--t------6--t----3-*--3--5-------|
G|---2-----*------7----a------5--a----4-*-------------|
D|-3-------*----9------p------7--p------*-------------|
A|---------*--7-----------5-------------*--3----------|
E|---------*------------------------3---*-------------|
Holding hands is fine but I have got better things on my mind


E|-------0-*----------------------------*-------------|
B|-----1---*--------8--t------6--t----3-*--3--5-------|
G|---2-----*------7----a------5--a----4-*-------------|
D|-3-------*----9------p------7--p------*-------------|
A|---------*--7-----------5-------------*--3----------|
E|---------*------------------------3---*-------------|
You know it could happen If you d only see me in a different night


E|-------0-*----------------------------*-------------|
B|-----1---*--------8--t------6--t----3-*--3--5-------|
G|---2-----*------7----a------5--a----4-*-------------|
D|-3-------*----9------p------7--p------*-------------|
A|---------*--7-----------5-------------*--3----------|
E|---------*------------------------3---*-------------|
Baby when we find get together You will see that I was right


Chorus:
E|-------0-*----------------------------*-------------|
B|-----1---*--------8--t------6--t----3-*--3--5-------|
G|---2-----*------7----a------5--a----4-*-------------|
D|-3-------*----9------p------7--p------*-------------|
A|---------*--7-----------5-------------*--3----------|
E|---------*------------------------3---*-------------|
Say you love me You know that I be nice 


E|-------0-*----------------------------*-------------|
B|-----1---*--------8--t------6--t----3-*--3--5-------|
G|---2-----*------7----a------5--a----4-*-------------|
D|-3-------*----9------p------7--p------*-------------|
A|---------*--7-----------5-------------*--3----------|
E|---------*------------------------3---*-------------|
If you only say you love me Don't treat me like i was ice so

[ Tab from: http://www.guitartabs.cc/tabs/m/mymp/say_you_love_me_tab_ver_3.html ]
E|-------0-*----------------------------*-------------|
B|-----1---*--------8--t------6--t----3-*--3--5-------|
G|---2-----*------7----a------5--a----4-*-------------|
D|-3-------*----9------p------7--p------*-------------|
A|---------*--7-----------5-------------*--3----------|
E|---------*------------------------3---*-------------|
Please love me I'll be yours and you will mine


E|-------0-*----------------------------*-------------|
B|-----1---*--------8--t------6--t----3-*--3--5-------|
G|---2-----*------7----a------5--a----4-*-------------|
D|-3-------*----9------p------7--p------*-------------|
A|---------*--7-----------5-------------*--3----------|
E|---------*------------------------3---*-------------|
And if you only say you love me baby Things would really work out fine


Verse2:
E|-------0-*----------------------------*-------------|
B|-----1---*--------8--t------6--t----3-*--3--5-------|
G|---2-----*------7----a------5--a----4-*-------------|
D|-3-------*----9------p------7--p------*-------------|
A|---------*--7-----------5-------------*--3----------|
E|---------*------------------------3---*-------------|
Dont you know that I want to be more than just your friend


E|-------0-*----------------------------*-------------|
B|-----1---*--------8--t------6--t----3-*--3--5-------|
G|---2-----*------7----a------5--a----4-*-------------|
D|-3-------*----9------p------7--p------*-------------|
A|---------*--7-----------5-------------*--3----------|
E|---------*------------------------3---*-------------|
Holding hands is fine But I have got better things on my mind.

E|-------0-*----------------------------*-------------|
B|-----1---*--------8--t------6--t----3-*--3--5-------|
G|---2-----*------7----a------5--a----4-*-------------|
D|-3-------*----9------p------7--p------*-------------|
A|---------*--7-----------5-------------*--3----------|
E|---------*------------------------3---*-------------|
You know it could happen If you d only see me in a different night

E|-------0-*----------------------------*-------------|
B|-----1---*--------8--t------6--t----3-*--3--5-------|
G|---2-----*------7----a------5--a----4-*-------------|
D|-3-------*----9------p------7--p------*-------------|
A|---------*--7-----------5-------------*--3----------|
E|---------*------------------------3---*-------------|
Baby when we find get together You will see that I was right


**Repeat Chorus with this tab**
E|---0-----0-*-----------------------------*-------------|
B|---1-----1-*----8------8-------6--t----3-*--3--5-------|
G|---2-----2-*----7------7-------5--a----4-*-------------|
D|-3---3-3---*----9------9-----7----p------*-------------|
A|-----------*--7----7-7-----5-------------*--3----------|
E|-----------*-------------------------3---*-------------|



(Adlib/Solo)
E|---10s12-12-10-8-8s10--------------------10s12-----------|
B|---------------------8-8--8-8s10-13-13-10-----13s15-13---|
G|---------------------------------------------------------|
D|---------------------------------------------------------|
A|---------------------------------------------------------|
E|---------------------------------------------------------|


E|-10s12-12-10-8-8s10--------------------10s12-12s13-13s15-|
B|-------------------8-8--8-8s10-13-13-10------------------|
G|---------------------------------------------------------|
D|---------------------------------------------------------|
A|---------------------------------------------------------|
E|---------------------------------------------------------|


**Repeat Chorus with this tab**
E|---0-----0-*-----------------------------*-------------|
B|---1-----1-*----8------8-------6--t----3-*--3--5-------|
G|---2-----2-*----7------7-------5--a----4-*-------------|
D|-3---3-3---*----9------9-----7----p------*-------------|
A|-----------*--7----7-7-----5-------------*--3----------|
E|-----------*-------------------------3---*-------------|


Hope u like it...












I LOVE U ROVINA SANTOS :)
Comments