Mymp - Say You Love Me Chords & Tabs

 

Say You Love Me Chords & Tabs

Mymp Chords & Tabs

Version: 2 Type: Tab 0 ratings
1 star 2 stars 3 stars 4 stars 5 stars
comments

Say You Love Me Tab

   
Song         : Say You Love Me
Artist       : MYMP
Album        : Versions

Transcribe by: Walter Michael De la Cruz - SLU Baguio City - 09224012464
               Walterfdelacruz@yahoo.com or Michaelfdelacruz@yahoo.com

Tabbed       : March 1, 2005
Note         : You can Say to me If You Love Me, It's a pleasure to hear that! hehehe


/ slide

Intro:

     FM7        Em7       Dm7       G      C
E|-------0-*----------------------------*-------------|
B|-----1---*--------8--t------6--t----3-*--3--5-------|
G|---2-----*------7----a------5--a----4-*-------------|
D|-3-------*----9------p------7--p------*-------------|
A|---------*--7-----------5-------------*--3----------|
E|---------*------------------------3---*-------------|
 
     FM7        Em7       Dm7       G      C
E|-------0-*----------------------------*-------------|
B|-----1---*--------8--t------6--t----3-*--3--5-------|
G|---2-----*------7----a------5--a----4-*-------------|
D|-3-------*----9------p------7--p------*-------------|
A|---------*--7-----------5-------------*--3----------|
E|---------*------------------------3---*-------------|


        Verse 1:FM7- Em7-Dm7-G-C(The same tab through the whole song)



     FM7        Em7       Dm7       G      C
E|-------0-*----------------------------*-------------|
B|-----1---*--------8--t-------6------3-*--3--5-------|
G|---2-----*------7----a-------5------4-*-------------|
D|-3-------*----9------p-----7----------*-------------|
A|---------*--7-----------5-------------*--3----------|
E|---------*------------------------3---*-------------|

Chorus: F- Em7-Dm7- G-C


Use this tab at the next Chorus with a little bass..

[ Tab from: http://www.guitartabs.cc/tabs/m/mymp/say_you_love_me_tab_ver_2.html ]
    FM7            Em7         Dm7      G      C
E|---0-----0-*-----------------------------*-------------|
B|---1-----1-*----8------8-------6--t----3-*--3--5-------|
G|---2-----2-*----7------7-------5--a----4-*-------------|
D|-3---3-3---*----9------9-----7----p------*-------------|
A|-----------*--7----7-7-----5-------------*--3----------|
E|-----------*-------------------------3---*-------------|

Chorus: F- Em7-Dm7- G-C

Adlib/Solo)
E|---10/12-12-10-8-8/10--------------------10/12-----------|
B|---------------------8-8--8-8/10-13-13-10-----13/15-13---|
G|---------------------------------------------------------|
D|---------------------------------------------------------|
A|---------------------------------------------------------|
E|---------------------------------------------------------|


E|-10/12-12-10-8-8/10--------------------10/12-12/13-13/15-|
B|-------------------8-8--8-8/10-13-13-10------------------|
G|---------------------------------------------------------|
D|---------------------------------------------------------|
A|---------------------------------------------------------|
E|---------------------------------------------------------|


this tabs ulit
    FM7            Em7         Dm7      G      C
E|---0-----0-*-----------------------------*-------------|
B|---1-----1-*----8------8-------6--t----3-*--3--5-------|
G|---2-----2-*----7------7-------5--a----4-*-------------|
D|-3---3-3---*----9------9-----7----p------*-------------|
A|-----------*--7----7-7-----5-------------*--3----------|
E|-----------*-------------------------3---*-------------|

Chorus: F- Em7-Dm7- G-C

Ending : A-B


Comments,questions?? send me a message in friendster at Walterfdelacruz@yahoo.com or you 
text me or call me at 09224012464
Comments