Mymp - Say You Love Me Chords & Tabs

 

Say You Love Me Chords & Tabs

Mymp Chords & Tabs

Version: 1 Type: Tab 0 ratings
1 star 2 stars 3 stars 4 stars 5 stars
comments

Say You Love Me Tab

   
Song         : Say You Love Me
Artist       : MYMP
Album        : Versions

Transcribe by: Walter Michael De la Cruz - SLU Baguio City - 09224012464
              (Walterfdelacruz@yahoo.com)

Tabbed       : March 1, 2005
Note         : You can Say to me If You Love Me, It's a pleasure to hear that! hehehe

Intro:

     FM7        Em7       Dm7       G      C
E|-------0-*----------------------------*-------------|
B|-----1---*--------8--t------6--t----3-*--3--5-------|
G|---2-----*------7----a------5--a----4-*-------------|
D|-3-------*----9------p------7--p------*-------------|
A|---------*--7-----------5-------------*--3----------|
E|---------*------------------------3---*-------------|

         FM7        Em7       Dm7       G      C
E|-------0-*----------------------------*-------------|
B|-----1---*--------8--t--5h6--t----3---*--3--5-------|
G|---2-----*------7----a-------a----4---*-------------|
D|-3-------*----9------p-------p--------*-------------|
A|---------*--7-----------5-------------*--3----------|
E|---------*----------------------3-----*-------------|

Verse 1:FM7- Em7-Dm7-G-C(The same tab through the whole song)



     FM7        Em7       Dm7       G      C
E|-------0-*----------------------------*-------------|
B|-----1---*--------8--t-------6------3-*--3--5-------|
G|---2-----*------7----a-------5------4-*-------------|
D|-3-------*----9------p-----7----------*-------------|
A|---------*--7-----------5-------------*--3----------|
E|---------*------------------------3---*-------------|


[ Tab from: http://www.guitartabs.cc/tabs/m/mymp/say_you_love_me_tab.html ]
  Don"t you know that I want to be more than just your friend,
¡¡¡¡Holding hands is fine
¡¡¡¡But I have got better things on my mind.
¡¡¡¡You know it could happen
¡¡¡¡If you d only see me in a different night
¡¡¡¡Baby when we find get together
¡¡¡¡You will see that I was right
Chorus: F- Em7-Dm7- G-C
¡¡¡¡Say you love me
¡¡¡¡You know that I be nice
¡¡¡¡If you only say you love me
¡¡¡¡Don't treat me like was ice
¡¡¡¡Please love me
¡¡¡¡I will yours and you will mine
¡¡¡¡If you only say you love me baby(darling)
¡¡¡¡Things would really work out fine

¡¡¡¡Dont you know that I want to be more than just your friend,
¡¡¡¡Holding hands is fine
¡¡¡¡But I have got better things on my mind.
¡¡¡¡You know it could happen
¡¡¡¡If you d only see me in a different nigh
¡¡¡¡Baby when we find get together
¡¡You will see that I was right
Ending: A-B

Use this tab at the Chorus with a little bass..


    FM7        Em7       Dm7       G      C
E|---0-----0-*-----------------------------*-------------|
B|---1-----1-*----8------8-------6--t----3-*--3--5-------|
G|---2-----2-*----7------7-------5--a----4-*-------------|
D|-3---3-3---*----9------9-----7----p------*-------------|
A|-----------*--7----7-7-----5-------------*--3----------|
E|-----------*-------------------------3---*-------------|

Chorus: F- Em7-Dm7- G-C
¡¡¡¡Say you love me
¡¡¡¡You know that I be nice
¡¡¡¡If you only say you love me
¡¡¡¡Don't treat me like was ice
¡¡¡¡Please love me
¡¡¡¡I will yours and you will mine
¡¡¡¡If you only say you love me baby(darling)
¡¡¡¡Things would really work out fine

Ending : A-B


Comments,questions?? send me a message in friendster at Walterfdelacruz@yahoo.com or you 
text me or call me at 09224012464
Comments