Mymp - Sakay Chords & Tabs

 

Sakay Chords & Tabs

Mymp Chords & Tabs

Version: 2 Type: Tab 0 ratings
1 star 2 stars 3 stars 4 stars 5 stars
comments

Sakay Tab

   
Intro:

A9-D9-A9-E7


E|-------------------------------------------------------------------------|
B|-------------3s5------------------------------------4s5-3-2-3-2s5--------|
G|1h2--1-2---------1h2---1-2---------1h2--1-2------------------------4-----|
D|--------------------------------2s4--------------------------------------|
A|-------------------------------------------------------------------------|
E|-------------------------------------------------------------------------|


Verse 1:   

  A9                 E7
Tumawag ang barkada, 
   A9               E7
Saan daw pupunta?
   A9             E7       D9   E7
Gusto daw nilang lumayas...
   A9              E7
Magulo na ata yan,
   A9         E7
Pero Ok lang,
   A9         E7               D9   E7
Basta't ikaw ay may kasama....


Refrain:

         D9        E7           A9   E7
At huwag ka nang mag alinlangan
   A9-A9          E7      
di naman kita iiginap...
   D9          E7      A9      E7
Sakay ka lang Sa trip kong ito
   A9-E7     D9               E7
Sige na... Sagot ko ang kwento...


Chorus:

 A9-D9     A9-D9
Gusto ko ay sumakay..
    A9-A9              D9   E7
Sa kotse mong magara...
     A9 D9        D9   A9       E7
Pupunta tayo kahit saan magdamagan...
    D9            A9           E7
Basta't mag drive ka lang...
[ Tab from: http://www.guitartabs.cc/tabs/m/mymp/sakay_tab_ver_2.html ]
Verse 2:
A9          E7
Pupunta tayo,
 A9              E7
Kahit saan gusto
  A9          E7            D9         E7
Saanman dalhin ng hangin...
   A9         E7         
Baguio Tagaytay,
   A9           E7
Kahit anong lagay
   A9           E7          D9     E7
Basta't kasama ka, kasabay....

Refrain
Chorus

Bridge:
     A9                      A9
Simpleng bagay simpleng trip
    D9               E7
Pero ubod ng saya
    A9                             A9
At tuwing makita kang nakangiti
   D9          Bsus7-E7
Ako'y natutuwa...

Solo:

E|-------------------------------------------------------------------------|
B|-------------3s5------------------------------------4s5-3-2-3-2s5--------|
G|1h2--1-2---------1h2---1-2---------1h2--1-2------------------------4-----|
D|--------------------------------2s4--------------------------------------|
A|-------------------------------------------------------------------------|
E|-------------------------------------------------------------------------|

E|----------------------------4-5------------------------------------------|
B|-------------3s7--5--7---------5-----------------4s5-3-2-3-2s5-----------|
G|1h2--1-2------------------------------1h2-1-2----------------------------|
D|-------------------------------------------------------------------------|
A|-------------------------------------------------------------------------|
E|-------------------------------------------------------------------------|

Chorus


A9 x-0-2-2-0-0
E7 0-2-2-1-0-0 
D9 x-x-0-2-3-0

rate niyo!!! exacto na yan kapa ko lang!!!

jiggs lansangan
Comments