Mymp - Sa Kanya Chords & Tabs

 

Sa Kanya Chords & Tabs

Mymp Chords & Tabs

Version: 2 Type: Tab 0 ratings
1 star 2 stars 3 stars 4 stars 5 stars
comments

Sa Kanya Tab

Song         : Sa Kanya
Artist       : MYMP
Album        : Behind Acoustics

Transcribe by: Walter Michael De la Cruz - SLU Baguio City - 09224012464
              (Walterfdelacruz@yahoo.com)

Date of Tab:   May 24, 2005

Legend:
+ (Harmonic)
p (pull)

Intro:

E|------------------1--1------1+-----1-------------------------------|
B|--t--1--t------t---------------------------------------------------|
G|--a-----a---3--a---------------------------------------------------|
D|--p-----p------p---------------------------------------------------|
A|-----------------------------------1------3p1----------------------|
E|-----1------3-----1------------1+----------------------------------|


E|------------------1--1------1+-----1--------6----------------------|
B|--t--1--t------t-------------------------------6----5----3---------|
G|--a-----a---3--a---------------------------------------------------|
D|--p-----p------p---------------------------------------------------|
A|-----------------------------------1-------------------------------|
E|-----1------3-----1------------1+----------------------------------|


Verse 1:


E|----------------------*--------1--------------------------------|
B|---1---1---------1----*------1---1--------1---------------------|
G|-----2---2-----2---2--*-----------------3---3-------------------|
D|----------------------*-----------------------------------------|
A|----------------------*----1---------1--------------------------|
E|---1---------1--------*-----------------------------------------|
  Namulat     ako     at   ngayo'y   nag-iisa



E|----------------------*--------1--------------------------------|
B|---1---1---------1----*------1---1-----1---1--------------------|
G|-----2---2-----2---2--*------------------2---2------------------|
D|----------------------*-----------------------------------------|
A|----------------------*----1------------------------------------|
E|---1---------1--------*----------------1------------------------|
 Pagkatapos    ng----      ulan------


E|-------------------------*--------1--------------------------------|
B|---1---1------------1----*------1---1--------1---------------------|
G|-----2---2--------2---2--*-----------------3---3-------------------|
D|-------------------------*-----------------------------------------|
A|-------------------------*----1---------1--------------------------|
E|---1------------1--------*-----------------------------------------|
BAgamat Nakalipas na       ang mga   sandali


       4x
E|------------*----------------------------------------------------|
B|--------1---*----------------------------------------------------|
G|------2-----*-----------0--0------6------------------------------|
D|----3-------*-----------2--2------5------------------------------|
A|------------*-----------2--2------7------------------------------|
E|--1---------*-----------0--0------5------------------------------|
   Ay Nagmumuni      kung ako ay  nagwagi 


Refrain:

E|----------5------------5-----------------------------------------|
B|-------6-----6---------6----------6------------6-----------------|
G|-----------------------5-----------------------5-----------------|
D|-----------------------7-----------------------------------------|
A|-------5---------------5-----------------------------------------|
E|----------------------------------6------------5-----------------|
      Pinipilit   mang sabihin  na ito'y  wala sakin


E|----------------------------------------------------3------------|
B|----------------------------------------------------3------------|
G|----------------------------------------------------5------------|
D|----8-----8-8----------8-------8---------8-8-8------5------------|
A|----8-----8-8----------8-------8---------8-8-8------3------------|
E|----6-----6-6----------5-------5---------6-6-6-------------------|
    Ngunit bakit      hanggang ngayon   nagdurugo pa rin

Chorus:
[ Tab from: http://www.guitartabs.cc/tabs/m/mymp/sa_kanya_tab_ver_2.html ]
E|------1-1----1---*------------*--3--3--3---*----3--3-3-----------|
B|------1-1----1---*--6--6--6---*--3--3--3---*----3--3-3-----------|
G|------2-2----2---*--7--7--7---*--3--3--3---*----5--5-5-----------|
D|------3-3----3---*--8--8--8---*--5--5--5---*----5--5-5-----------|
A|------3-3----3---*--8--8--8---*--5--5--5---*----3--3-3-----------|
E|------1-1----1---*--6--6--6---*--3--3--3---*---------------------|
      Sa kanya pa rin     babalik     sigaw, ng      damdamin


E|------1-1----1---*------------*--3--3--3---*----3--3-3-----------|
B|------1-1----1---*--6--6--6---*--3--3--3---*----3--3-3-----------|
G|------2-2----2---*--7--7--7---*--3--3--3---*----5--5-5-----------|
D|------3-3----3---*--8--8--8---*--5--5--5---*----5--5-5-----------|
A|------3-3----3---*--8--8--8---*--5--5--5---*----3--3-3-----------|
E|------1-1----1---*--6--6--6---*--3--3--3---*---------------------|
   Sa kanya pa rin     sasaya   bulong ng puso    ko

E|------------------------------6--6------3------------------------|
B|------6-6---6-----------------6----6----3------------------------|
G|------7-7---7------10-10------8---------5------------------------|
D|------8-8---8------10-10------8---------5------------------------|
A|------8-8---8-------8--8------6---------3------------------------|
E|------6-6---6----------------------------------------------------|
       Kung buhay pa ang alaala ng ating    nakaraan

E|-------------------------------------3---------------------------|
B|-------------------------------------3---------------------------|
G|------7--7--7------10-10----7--7-7---5---------------------------|
D|------8--8--8------10-10----8--8-8---5---------------------------|
A|------8--8--8-------8--8----8--8-8---3---------------------------|
E|------6--6--6---------------6--6-6-------------------------------|
   Ang pagmamahal at panahon alay pa rin 


E|------------------1--1------1+-----1-------------------------------|
B|--t--1--t------t---------------------------------------------------|
G|--a-----a---3--a---------------------------------------------------|
D|--p-----p------p---------------------------------------------------|
A|-----------------------------------1-------------------------------|
E|-----1------3-----1------------1+----------------------------------|
Sa kanya


Verse 2: The same in Verse 1

At sa hatinggabi ay nag-iisa na lang 
Ay minamasdan ang larawan mo 
At ngayo'y bumalik nang siya'y kapiling pa 
Alaala ng buong magdamag 

Refrain 2: The same in Refrain
Kung sakali man isipin na ito'y wala sa akin 
Sana'y dinggin ang tinig kong nag-iisa pa rin


Chorus:

E|------1-1----1---*------------*--3--3--3---*----3--3-3-----------|
B|------1-1----1---*--6--6--6---*--3--3--3---*----3--3-3-----------|
G|------2-2----2---*--7--7--7---*--3--3--3---*----5--5-5-----------|
D|------3-3----3---*--8--8--8---*--5--5--5---*----5--5-5-----------|
A|------3-3----3---*--8--8--8---*--5--5--5---*----3--3-3-----------|
E|------1-1----1---*--6--6--6---*--3--3--3---*---------------------|
      Sa kanya pa rin     babalik     sigaw, ng      damdamin


E|------1-1----1---*------------*--3--3--3---*----3--3-3-----------|
B|------1-1----1---*--6--6--6---*--3--3--3---*----3--3-3-----------|
G|------2-2----2---*--7--7--7---*--3--3--3---*----5--5-5-----------|
D|------3-3----3---*--8--8--8---*--5--5--5---*----5--5-5-----------|
A|------3-3----3---*--8--8--8---*--5--5--5---*----3--3-3-----------|
E|------1-1----1---*--6--6--6---*--3--3--3---*---------------------|
   Sa kanya pa rin     sasaya   bulong ng puso    ko

E|------------------------------6--6------3------------------------|
B|------6-6---6-----------------6----6----3------------------------|
G|------7-7---7------10-10------8---------5------------------------|
D|------8-8---8------10-10------8---------5------------------------|
A|------8-8---8-------8--8------6---------3------------------------|
E|------6-6---6----------------------------------------------------|
       Kung buhay pa ang alaala ng ating    nakaraan

E|-------------------------------------3---------------------------|
B|-------------------------------------3---------------------------|
G|------7--7--7------10-10----7--7-7---5---------------------------|
D|------8--8--8------10-10----8--8-8---5---------------------------|
A|------8--8--8-------8--8----8--8-8---3---------------------------|
E|------6--6--6---------------6--6-6-------------------------------|
   Ang pagmamahal at panahon alay pa rin sa kanya




(ADLIB)

(Repeat Chorus)


Comments,questions?? send me a message in friendster at Walterfdelacruz@yahoo.com or you 
text me or call me at 09224012464
Comments