Mymp - Power Of Two Chords & Tabs

 

Power Of Two Chords & Tabs

Mymp Chords & Tabs

Version: 1 Type: Tab 0 ratings
1 star 2 stars 3 stars 4 stars 5 stars
comments

Power Of Two Tab

   
Song: Power of Two
By  : MYMP
Album: ( live performance )
Standard Tuning: Open Em
Transcribed by: Joven Dasigan ( angeljov03@yahoo.com )
( comments and suggestions email me at angeljov03@yahoo.com )

legend: p - pull off
        h - hammer
        / - slide up

 - after every 2 counts, tap guitar

Intro:

  Rhythm:
              C9/B      C9     FM9      C9            C9/B     Dm7
|-------------------3-------3-------3-------3-------3-------3---1---1---1---1---|
|-------------------3---3---3---1---1---3---3---3---3---3---3---1---1---1---1---|
|-------------------0---0-------2-------0-------0-------0-------2-------2-------|
|-------------------------------3-------------------------------0-------0-------|
|---------------2-------3---------------3-------3-------2-----------------------|
|-------------------------------------------------------------------------------|


 C9/B     C9     FM9      C9              C9/B   Dm7
|-----3-------3-------3-------3-------3-------3---1---1---1---1---|
|-3---3---3---3---1---1---3---3---3---3---3---3---1---1---1---1---|
|-0-------0-------2-------0-------0-------0-------2-------2-------|
|-----------------3-------------------------------0-------0-------|
|-2-------3---------------3-------3-------2-----------------------|
|-----------------------------------------------------------------|


  Lead:
               C9/B   C9     FM9     C9   C9/B       Dm7              C9/B   C9
|---------------------8---7-------------------------------------------------8-|
|-1/3-1-3-1-----1-3/8--------8/10----8----5/6/8-8--6-6--1/3-1-3-1-----1-3/8---|
|-----------0-2---------------------------5/7/9-9--7-7------------0-2---------|
|-----------------------------------------------------------------------------|
|-----------------------------------------------------------------------------|
|-----------------------------------------------------------------------------|
      p h p   h                                             p h p   h

       FM7     C9            Dm7
|---7---------------------------|
|------8/10----8---5/6/8-8--6-6-|
|------------------5/7/9-9--7-7-|
|-------------------------------|
|-------------------------------|
|-------------------------------|


Stanza I: (rhythm only)

 C9/B     C9     FM9      C9              C9/B   Dm7             C9/B     C9
|-----3-------3-------3-------3-------3-------3---1---1---1---1-------3--------|
|-3---3---3---3---1---1---3---3---3---3---3---3---1---1---1---1---3---3---3----|
|-0-------0-------2-------0-------0-------0-------2-------2-------0-------0----|
|-----------------3-------------------------------0-------0--------------------|
|-2-------3---------------3-------3-------2-----------------------2-------3----|
|------------------------------------------------------------------------------|


     FM7      C9    Cm6-2             Dm7     G
|-3-------3-------3---1---1---1---1---1---1-------3---|
|-3---1---1---3---3---3---3---3---3---1---1---3---3---|
|-----2-------0-------3-------3-------2-------0-------|
|-----3-------------------------------0---------------|
|-------------3-------3-------3-----------------------|
|---------------------------------------------3-------|

 C9/B     C9     FM9      C9              C9/B   Dm7             C9/B     C9
|-----3-------3-------3-------3-------3-------3---1---1---1---1-------3--------|
|-3---3---3---3---1---1---3---3---3---3---3---3---1---1---1---1---3---3---3----|
|-0-------0-------2-------0-------0-------0-------2-------2-------0-------0----|
|-----------------3-------------------------------0-------0--------------------|
|-2-------3---------------3-------3-------2-----------------------2-------3----|
|------------------------------------------------------------------------------|


     FM7      C9    Cm6-2             Dm7             G(hold)
|-3-------3-------3---1---1---1---1---1---1---1---1----3--|
|-3---1---1---3---3---3---3---3---3---1---1---1---1----3--|
|-----2-------0-------3-------3-------2-------2---2----0--|
|-----3-------------------------------0-------0--------0--|
|-------------3-------3-------3------------------------2--|
|------------------------------------------------------3--|


    now the parking lot is empty, everyone's gone someplace
    i pick you up and in the trunk i've packed a cooler and a 2-day suitcase
    'cause there's a place we like to drive, way out in the country
    five miles out of the city limit we're singing and your hands upon my knee

Chorus: (rhythm only)

      C               Cm6             FM7             G               C
|-------0-------0-------3-------3-------0-------0-----------------------0------|
|-------1---1---1-------3---3---3-------1---1---1-------3---3---3-------1---1--|
|-------0---0-----------3---3-----------2---2-----------4---4---4-------0---0--|
|-------------------------------------3-----3----------------------------------|
|-----3-----3-------0-3-----3-------0-------------------------------0-3-----3--|
|---------------------------------------------------0-3-----3------------------|

[ Tab from: http://www.guitartabs.cc/tabs/m/mymp/power_of_two_tab.html ]
        Cm6             FM7             G     G/G#      Am7             F
|-0-------3-------3-------0-------0-------0-------0-------0-------0-------1----|
|-1-------3---3---3-------1---1---1-------3-------3-------1---1---1-------1----|
|---------3---3-----------2---2-----------4-------4-------0---0-----------2----|
|-----------------------3-----3-------3-5-----6--------------------------------|
|-----0-3-----3-------0-------------------------------0-0-----0----------------|
|---------------------------------------------------------------------0-1------|


            C    C9/B     Am7               Dm7   Em7     F              G(hold)
|-----1-------0-------3-------0-------0-------1-------0-------1-------1---3-|
|-1---1-------1---3---3---1---1---1---1-------1-------0---1---1---1---1---3-|
|-2-----------0---0-------0-------0-----------2-------0---2-------2-------0-|
|-------------------------------------------0-----------------------------0-|
|-----------3-----2-------0-------0-------0-------------------------------2-|
|-1-------1---------------------------------------0-------1-------1-------3-|


     so we're ok, we're fine
    ...........
     multiply life by the power of two


Interlude:

  Rhythm:

 C9/B     C9     FM9      C9              C9/B   Dm7
|-----3-------3-------3-------3-------3-------3---1---1---1---1---|
|-3---3---3---3---1---1---3---3---3---3---3---3---1---1---1---1---|
|-0-------0-------2-------0-------0-------0-------2-------2-------|
|-----------------3-------------------------------0-------0-------|
|-2-------3---------------3-------3-------2-----------------------|
|-----------------------------------------------------------------|


  Lead:

 C9/B     C9     FM9      C9              C9/B      Dm7
|---------8---7---------------------------------------------------|
|------8----------8/10----8---------------5/6/8-8--6-6--1/3-1-3-1-|
|-7/9-------------------------------------5/7/9-9--7-7------------|
|-----------------------------------------------------------------|
|-----------------------------------------------------------------|
|-----------------------------------------------------------------|


Stanza II - same as Stanza I

    you know things that i am afraid of, i'm not afraid to tell
    and if we ever leave a legacy it's that we loved each other well
    i've seen the shadows of so many people, trying on the treasures of youth
    a road that fancy and fast ends in a fatal crash,
         and i'm glad we got off to tell you the truth

repeat Chorus - with first line: 'cause we're ok, we're fine..

Al Lib:

   Rhythm: similar to Intro

   Lead:

 C9/B     C9    FM9       C9     C9/B  C9     Dm7                 C9/B  C9
|-----8-7----------------------------------------------5---7------5/7/8-10---|
|---------8----------8-10--------5/6/8-8---6---6---8-------------------------|
|-------------9-9/10------9------5/7/9-9---7---7-----------------------------|
|----------------------------------------------------------------------------|
|----------------------------------------------------------------------------|
|----------------------------------------------------------------------------|
        p               h

         FM9          C9                 C9/B       Dm7
|---8-10-13---12---10-12----------8-7--------------------------|
|------------------------13-------8---8-8/10----6/5-----8---6--|
|---------------------------------------------------7/9--------|
|--------------------------------------------------------------|
|--------------------------------------------------------------|
|--------------------------------------------------------------|
      h               h             p

Bridge: (rhythm only)

  Dm7   Em7     F                       G       C
|---1-------0-------1-------1-------1-------3-------0-------0--|
|---1---0---0---1---1---1---1---1---1---3---3---1---1---1---1--|
|---2---0-------2-------2-------2-------4-------0-------0------|
|-0------------------------------------------------------------|
|-----------------------------------------------3-------3------|
|-------0-------1-------1-------1-------3----------------------|


    Dm7   Em7     F                       Em7     Dm7
|-----1-------0-------1-------1-------1-------0---1---1---1---1--|
|-----1---0---0---1---1---1---1---1---1---0---0---1---1---1---1--|
|-----2---0-------2-------2-------2-------0-------2-------2------|
|---0---------------------------------------------0-------0------|
|-3--------------------------------------------------------------|
|---------0-------1-------1-------1-------0----------------------|


    F     Em7     Dm7 (hang)
|-----1-------0-------1---|
|-----1---0---0---1---1---|
|-----2---0-------2-------|
|-----------------0-------|
|-------------------------|
|-0-1-----0---------------|

    all the shiny little trinkets of temptation
........
    fools' gold

Stanza III: same as Stanza I

    now we're talking 'bout a difficult thing
........
      the closer i am to free

repeat Chorus

Ending: repeat Interlude 4x with the lead of Intro then fade

Medyo may binago si chin dun sa dulo pakinggan nyo na lang yung tyempo...
Comments