Mymp - Paalam Na Chords & Tabs

 

Paalam Na Chords & Tabs

Mymp Chords & Tabs

Version: 4 Type: Tab 0 ratings
1 star 2 stars 3 stars 4 stars 5 stars
comments

Paalam Na Tab

   
Artist  : MYMP
Album   : Soulful Acoustic
Song    : Paalam Na
Type    : Guitar Tablature
Tuning  : Standard EADGBe
Tabber  : Daniel Astillero
Abstract: Hello!!! This song is one of my favourites today, ang ganda
kasi ng boses ni Juris! crush ko ata siya..Nwei, talking about the Tab,
halata namang me capo 'to, but kinuha ko siya sa natural tuning para sa
mga wala o hindi pa nakakabili ng capo..hehe.. I'm not quite sure if I 
catch this correctly but one thing is I know, katunognaman eh...;) 
Medyo madaming mga symbols ang ginamit ko dito na hindi naman talagang 
ginagamit generally ng society of tablatures tulad ng +, +s, =,
pero madali rin namang intindihin, the meaning of the signs are at 
the lower page ofthe tabs.. Sa outro, hindi ko po makuha masyado yun eh, 
don't know if Fm, Bbm, C#m7 o ano ba yung pinakahuling chord
bago yung BbM7.. Kung gusto nyo pong mag comment, pagalitan, suggest, 
laitin, murahin ang tab ng isang 16year old kid,
txt nlang po sa 09208724322, wala kc akng hilig sa email... Please buy 
original CDs and cassettes of MYMP, mura lang
naman eh.. Support MYMP concerts wherever they appear on the country.. 
mas maganda kc si Juris sa personal, nakita ko 
siya nung nag free concert sila dito sa Legazpi City.. Ang ganda talaga 
ng boses!...I dedicate this song to
Nadine..A..B.... I love You.. -daniel astillero

Intro:

   BbM7		   EbM7     C#m7 FMaj
e|-1------------------6-----4----1-------(1)------13---]
B|-3-------5--6~~--8~~-8-8--5----1-(1)---------11------]
G|-2---2/-7~~7~~---7~~------4----2----(2)--------------]
D|-3---------------8~~------6----3---------------------]
A|-1---------------6~~------4--------------------------]
E|-----------------------------------------------------]

Verse:

   Bb   BbM7   Bb7     EbM7 Eb7   Dm7        Cm7       FMaj
e|-1+---1+-----1+------6+---6+----5+---------5+--------1+-----}*
B|-3+---3+-----3+------8+---8+----6+---------4+--------1+-----}
G|-3+---2+-----1+------7+---6+----5+---------3+--------2+-----}
D|-3----3------3-------8----8-----7+---------5+--------3+-----}
A|-1----1------1------/6----6-----5----------3----------------}
E|------------------------------------------------------------}
   Ba    kit  nangag.. ka  sabi.. babalik hanggang.. wala

   Bb   BbM7   Bb7     EbM7 Eb7   Dm7    Cm7    FMaj Bb
e|-1+---1+-----1+------6+---6+----5+-----5+-----1+---1-------]
B|-3+---3+-----3+------8+---8+----6+-----4+-----1+---3-------]
G|-3+---2+-----1+------7+---6+----5+-----3+-----2+---3-------]
D|-3----3------3-------8----8-----7+-----5+-----3+---3-------]
A|-1----1------1------/6----6-----5------3-----------1-------]
E|-----------------------------------------------------------]
   si   no  na ba..    mo?  ma..  bing.. hal pa ba  ako?

Refrain:

     F    Bb             F       Bb 
e|---1+---6---=----13-=--1+------6---=-13----=--}**
B|---1+---6---=-11----=--1+------6---=----15-=--}
G|---2+---7---=-------=--2+------7---=-------=--}
D|---3+---8---=-------=--3+------8---=-------=--}
A|---3+---8---=-------=--3-------8---=-------=--}
E|---1---/6---=-------=--1------/6---=-------=--}
  hindi.. sin            lipas..araw

   EbM7 Dm7  Gm7  Cm7      F
e|-6----5----3+---3--------1---]
B|-8----6----3+---4--------1---]
G|-7----5----3+---3--------2---]
D|-8----7----3+---5--------3---]
A|-6----5----5+---3--------3---]
E|-----------3-------------1---]
   nasa isip ko.. laging  ikaw


Chorus:
[ Tab from: http://www.guitartabs.cc/tabs/m/mymp/paalam_na_tab_ver_4.html ]
         EbM7  FMaj    Dm7        Gm7  Cm7  F      -Bb-omit the nxt-
e|-------6+----1+------5+-8p5-5---3+---3+---1-------1+----REPEAT-]***
B|-------8+----1+------6+----6----3+---4+---1-------3+----REPEAT-]
G|-------7+----2+------5+---------3+---3+---2-------3+----REPEAT-]
D|-------8-----3-------7----------3+---5----3-------3+----REPEAT-]
A|-------6-------------5----------5+---3----3-------1---/-REPEAT-]
E|--------------------------------3---------1-------------REPEAT-]
 paalam na  nasan.. ngayon   may iba.. hal  panga.. gal


Intro

  BbM7		   EbM7           C#m7 FMaj
e|-1------------------6----REPEAT-4----1-------(1)------13---]
B|-3-------5--6~~--8~~--8--REPEAT-5----1-(1)---------11------]
G|-2---2/-7~~7~~---7~~-7---REPEAT-4----2----(2)--------------]
D|-3---------------8~~-----REPEAT-6----3---------------------]
A|-1---------------6~~-----REPEAT-4--------------------------]
E|-----------------------------------------------------------]

Verse: use*

Refrain: use** "strum or pluck..."

Chorus: use*** "aaam... sa last chord ng chorus, Bb dba? try to Bb then
	 Bbsus den biglang solo..."

Solo:

This is my favourite part!!!
e|-----------------------------------------------------6-6-----------------}
B|--4-4--6--6/8--8--10-8--8-8-8/10\8--6--6/11--10--8-6---------------------}
G|---------------------------------------------------------7h8-8-5-3-2-2h3v}
D|-------------------------------------------------------------------------}
A|-------------------------------------------------------------------------}
E|-------------------------------------------------------------------------}

e|-(8--6--6-6h8-6-------)]
B|-(ha-ah-paaaa-lam-'8'-)]
G|-(-----------------na-)]
D|-----------------------]   
A|-----------------------]
E|-----------------------]   
	"dito po sa parenthesis, yung '8' sa solo at '8' na EbM7 sa chorus
		sa baba ay iisa, meaning, sabay na sa chord yung notang
            '8' o G o ano pa man hehe"

Chorus:

         EbM7  FMaj    Dm7        Gm7  Cm7  F       Bb
e|-------6+----1+------5+-8p5-----3+---3+---1-------1+-----}
B|------'8'+---1+------6+----6----3+---4+---1-------3+-----}
G|-------7+----2+------5+-----5---3+---3+---2-------3+-----}
D|-------8-----3-------7----------3+---5----3-------3+-----}
A|-------6-------------5----------5+---3----3-------1---/--}
E|--------------------------------3---------1--------------}
 paalam na  nasan.. ngayon   may iba.. hal  panga.. gal

Outro:

         EbM7  FMaj    Dm7        Gm7  Cm7       F          Bb 
e|-------6+----1+------5+-5-------3+---3+--------1----------1+-}
B|-------8+----1+------6+---------3+---4+--------1----------3+-}
G|-------7+----2+------5+---------3+---3+--------2----------3+-}
D|-------8-----3-------7----------3+---5---------3----------3+-}
A|-------6-------------5----------5+---3---------3----------1--}
E|--------------------------------3--------------1-------------}
 paalam na  sana'y    alam mong ang.. maghihin.. alang.. sa'yo

                      (Cm)     Cm7      Fm7  BbM7   BbM7
e|-------1------------(3)------3+s------1+s---1+s---5~~~~~~--]
B|1--1h3---1----------(4)------4+s------1+s---2+s---6~~~~~~--]
G|-----------3-3-2-3-3/5-------3+s------1+s---1+s---7~~~~~~--]
D|--------------------(5)------5+s------1+s---3+s---8~~~~~~--]
A|--------------------(3)------3--------3+s---1--------------]
E|-----------------------------------------------------------]
                  ang puso'y     maghihintay.. haaahhaa

Key:

+   - Plucking
+s  - Pluck Softly
/   - Slide-up
\   - Slide-down
(n) - Do or Don't
h   - hammerp   
p   - pull-off
v   - vibrate
=n= - Second Guitar, Accompanying Guitar, Do or Don't
~   - Keep Note ringing

Hello to my Band Mates from Interfusion: Christian Paul, Jester Jan,
Bless, Christian, Irish, Obet... Love you guys!!!
Hello din kay Sir JoMags! tnx 4 d internet support
Comments