Mymp - Paalam Na Chords & Tabs

 

Paalam Na Chords & Tabs

Mymp Chords & Tabs

Version: 3 Type: Tab 0 ratings
1 star 2 stars 3 stars 4 stars 5 stars
comments

Paalam Na Tab

PAALAM NA
MYMP

johnsantos_17@yahoo.com

Standard Tuning	(EADGBE)
Capo on 1st fret

Intro:

E---------4p0-0--|-2---5--2--|--3---------------12harm--|
B--2------2---2--|--------2--|--3---0----12harm---------|
G------1---------|---2-------|------2-------------------|
D----2-----------|-0---------|--------------------------|
A--0-------------|-----------|--1-----------------------|
E----------------|-----------|------0-------------------|

Verse:
"Bakit ng nagpaalam ka.."

E----------------------------------|
B--2---5--5---5---3--3-------------|
G--1---4-4----4---2-2--------------|
D----------------------------------|
A--0-------------------------------|
E------4------3---2----------------|

"sabi mo ay babalik..."

E-----------------2----------------|
B--3----2---------3-------3-0------|
G--2----2-----------------2-1------|
D---------------4-------3---2------|
A-----0-------2--------2----2------|
E--1------------------------0------|


Pre-chorus:
"Hindi ko napansin...paglipas ng araw.."

E----------------0--------------------0-----------------------|
B--------5-------2-----------5----------2---------------------|
G------4-4-----2-----------4-4------2-------------------------|
D----2-------------------2------------------------------------|
A------------0-------------------0----------------------------|
E--4-------------------4--------------------------------------|

"ang nasa isip ko..."

E---------------2----------------|
B--2--2-------2-2----------------|
G--2--2--2----2------------------|
D--4--2-----2--------------------|
A--4--4--------------------------|
E--------2-----------------------|

"laging ikaw..."

E----2-------0--0---------------|
B----3------0---0---------------|
G----------2----2---------------|
D---------2-----2---------------|
A--2-----2------2---------------|
E-------0-------0---------------|

Chorus: 2x
"paalam na..."
[ Tab from: http://www.guitartabs.cc/tabs/m/mymp/paalam_na_tab_ver_3.html ]
E--2----0----4----2--------------|
B--3----0----5----2--------------|
G--2----1----4----2--------------|plucking
D--0----2----6----2--------------|
A-------2----4----4--------------|
E-------0---------2--------------|

"may iba mang mahal.."....nagtagal..."

E--------------2-----0--------0---------|
B--------------3-----0--------2---------|plucking
G--------------2-----1--------2---------|
D--------------4-----2--------2---------|
A--------------2-----2--------0---------|
E--------------------0------------------|

Adlib:

E---------4p0-0--|-2---5--7--|
B--2------2---2--|-----------|
G------1---------|---2-------|
D----2-----------|-0---------|
A--0-------------|-----------|
E----------------|-----------|

E---------4p0-0--|-2---5--2--|--3---------------12harm--|
B--2------2---2--|--------2--|--3---0----12harm---------|
G------1---------|---2-------|------2-------------------|
D----2-----------|-0---------|--------------------------|
A--0-------------|-----------|--1-----------------------|
E----------------|-----------|------0-------------------|

Solo:

E--------------------|--------------|-------------------55--|
B-2-3-3/5--5-5/7--7~-|--777-7/9-7-5-|-5/10-10-9--7-7\5------|
G--------------------|--------------|-----------------------|
D--------------------|--------------|-----------------------|
A--------------------|--------------|-----------------------|
E--------------------|--------------|-----------------------|

E--------------------------|
B--2h3--2------------------|
G---------4--2--1-1/2~-----|
D--------------------------|
A--------------------------|
E--------------------------|

Last Chorus:
"alang-alang sayo.."

E-----------------------------|
B--2---2----------------------|plucking
G--2---4----------------------|
D--2---4----------------------|
A--4---2----------------------|
E--2--------------------------|

"ang puso'y naghihintay..."

E--2----4----2----0---|--4*--------|
B--3----5----3----0---|--2*--------|
G--2----4----2----1---|--1*--------|
D--0----6----4----2---|--2*--------|
A-------4----2----2---|--0*--------|
E-----------------0---|---*--------|

=====w&_17=====
Comments