Mymp - No Ordinary Love Chords & Tabs

 

No Ordinary Love Chords & Tabs

Mymp Chords & Tabs

Version: 1 Type: Chords 0 ratings
1 star 2 stars 3 stars 4 stars 5 stars
comments

No Ordinary Love Chords

   
Song         : No ordinary Love
Artist       : MYMP
Album        : Behind Acoustics

Transcribe by: Walter Michael De la Cruz - SLU Baguio City - 09224012464
              (Walterfdelacruz@yahoo.com)

Tabbed       : March 1, 2005

This song is original by Jennifer Love Hewitt and I just love listening to this song.


Intro:

E|-5---5-----------------------------------|
B|------------10---------------------------|
G|---7---5----------------12---------------|
D|------------------12----12---------------|
A|-5----------9---9-------10---------------|
E|-----------------------------------------|


Verse 1
	   D		            F#m			G
E|---------------------------------------------------------------------------|
B|---------5------------------------------10---------------------7-----------|
G|------7------7------------------------9----9-----------------7-------------|
D|---7-------------7-----------------12--------12------------5---------------|
A|-5------------------------------9-----------------------5------------------|
E|---------------------------------------------------------------------------|

       This could have been just   another 	day

E|--------------|
B|--------5-----|
G|----7---------|
D|--------------|
A|--------------|
E|--------------|

But instead we're standing here


   	    D		          F#m     		        G
E|---------------------------------------------------------------------------|
B|---------5------------------------------10---------------------7-----------|
G|------7------7------------------------9----9-----------------7-------------|
D|---7-------------7-----------------12--------12------------5---------------|
A|-5-------------------------------9-----------------------5-----------------|
E|---------------------------------------------------------------------------|
	  No   need    for           words, it's all been        said


E|--------------|
B|--------5-----|
G|----7---------|
D|--------------|
A|--------------|
E|--------------|

I was alone on this journey

Refrain:
  
      F#m	            Bm
E|-------2-------------2--------------------|
B|---------2------------3-------------------|
G|-----------2-------2----2-----------------|
D|-----4-----------4------------------------|
A|---4-----------2--------------------------|
E|-2----------------------------------------|

   I was alone on this journey

      F#m	               Bm
E|-------2---------------2------------------|
B|---------2---------------3----------------|
G|-----------2---------2------2-------------|
D|-----4-------------4----------------------|
A|---4-------------2------------------------|
E|-2----------------------------------------|
 You came along to comfort me
[ Tab from: http://www.guitartabs.cc/tabs/m/mymp/no_ordinary_love_crd.html ]
      Em                 A
E|----------0-----------0----------------------------------------------------|
B|-------3----3-------3---3---------3-----3----------------------------------|
G|--------------------------------2---2--------------------------------------|
D|-----2------------2-----------2--------------------------------------------|
A|---2------------2-----------0---------0------------------------------------|
E|-0------------0------------------------------------------------------------|
 Everything I want in life is right here

Chorus:
     D                 F#m      G      A         D         G    A        D
E|------------------------------------------------------------------------------|
B|-------5-------------10--------3-----5-------5----------3-----5--------5------|
G|-----7---7----------9--9-------4-----6------7-7---------4-----6-------7--7----|
D|---7------7-------12----12-----------------7---7---------------------7----7---|
A|-5---------------9------------5-----7-----5------------5-----7------5---------|
E|----------------------------3-----5-------------------3-----5-----------------|
 This is not your ordinary no ordinary love I was not prepared enough

           G            A
E|---------------------------------------------------------------------------------|
B|--------3--------------3---------------------------------------------------------|
G|----------4----------2---2-------------------------------------------------------|
D|------5-----5------2-------2-----------------------------------------------------|
A|----5------------0---------------------------------------------------------------|
E|--3------------------------------------------------------------------------------|
     to fall so deep in love

D               F#m	      G   A    D
This is not your ordinary  no ordinary love
         G        A            D
You were the first to touch my heart
         G
Made everything right again
               A
with your extraordinary love

Verse 2: (do Verse 1 tab)
I get so weak
when you look at me
I get lost inside your eyes
sometimes the magic is hard to believe
but you're here before my weary eyes
you brought joy to my world
set me so free
I want you to understand
you are every breath that I breathe

Bridge:
D                                  A
From the very first time that we kissed

I knew that I just couldn't let you go at all
D                           A
From this day on, remember this:
That you're the only one that I adore
F#m        Bm          F#m  Bm
Can't we make this last forever
Em
This can't be a dream
            Asus
cause it feels so good to me


Comments,questions?? send me a message in friendster at Walterfdelacruz@yahoo.com or you 
text me or call me at 09224012464
Comments