Mymp - Magical Feeling Chords & Tabs

 

Magical Feeling Chords & Tabs

Mymp Chords & Tabs

Version: 3 Type: Tab 0 ratings
1 star 2 stars 3 stars 4 stars 5 stars
comments

Magical Feeling Tab

   
Title       : Magical Feeling
Artist      : MYMP
Album       : Beyond Acoustic
Track No    : 4
Ear tabber  : Walter Michael De la Cruz 
E-mail add 1: Walterfdelacruz@yahoo.com
E-mail add 2: Michaelfdelacruz@yahoo.com 
School      : Saint Louis Universtity
Contact no  : 09224012464
Time Elapsed: 3:35 PM - 3:48 PM


I think this is a different sound from MYMP
Medyo rock sila dito.Pero mganda pa din ang dating kahit
Hindi Acoustic.
Yung Tab lang ung ngawan ko dito. Wala pa yong Adlib
Next time na lang mga peepz!! kinulang kase sa time.hehehe

Standard Tuning
E A D G B E

Dalawa Ang nag gigitara dito. bael ung Guitar 1 ung naglelead
Ing guitar 2 ang nag popower chords at un ang i-ta tab ko.

This are the legends i will be using through this song:

X Palm mute
/ slide down
q quick release  

Intro: Paulit ulit lang ung intro
       From A slide to Bb

E|----------------------| 
B|----------------------| 
G|----------------------| (4 times)
D|----------------------|
A|--7/8-8-X-8-X-6-X-----|
E|--5/6-6-X-6-X-8-X-----|


VErse 1: ( Power chords muna bago pasok ang kanta)

E|----------------------|
B|----------------------|
G|----------------------|
D|----------------------|
A|--7/8-8-X-8-X-6-X-----|
E|--5/6-6-X-6-X-8-X-----|
        I was 

E|----------------------|
B|----------------------|
G|----------------------|
D|----------------------|
A|--7/8-8-X-8-X-6-X-----|
E|--5/6-6-X-6-X-8-X-----|
        in a car crash 

E|----------------------|
B|----------------------|
G|----------------------|
D|----------------------|
A|--5/6-6-X-6-X-6-X-----|
E|--3/4-4-X-4-X-4-X-----|
        Throwed up like 

E|----------------------|
B|----------------------|
G|----------------------|
D|----------------------|
A|--7/8-8-X-8-X-6-X-----|
E|--5/6-6-X-6-X-8-X-----|
    trash.        Slap 

E|----------------------|
B|----------------------|
G|----------------------|
D|----------------------|
A|--7/8-8-X-8-X-6-X-----|
E|--5/6-6-X-6-X-8-X-----|
    twice, step thrice

E|----------------------|
B|----------------------|
G|----------------------|
D|----------------------|
A|--7/8-8-X-8-X-6-X-----|
E|--5/6-6-X-6-X-8-X-----|
        It felt so real

E|----------------------|
B|----------------------|
G|----------------------|
D|----------------------|
A|--5/6-6-X-6-X-6-X-----|
E|--3/4-4-X-4-X-4-X-----|
       Baby what's the 

E|----------------------|
B|----------------------|
G|----------------------|
D|----------------------|
A|--7/8-8-X-8-X-6-X-----|
E|--5/6-6-X-6-X-8-X-----| 
    Deal

Refrain: (May kasama ng lead dito)

E|----------------------------------------------------|
B|----------------------------------------------------|
G|-5-5-X-5-X-5-X--------------------------------------|
D|-5-5-X-5-X-5-X-------3-3-X-3-X-3-X------------------|
A|-3-3-X-3-x-3-X-------3-3-X-3-X-3-X------------------|
E|---------------------1-1-X-1-X-1-X------------------|
      Looked into my   eyes........

E|----------------------------------------------------|
B|----------------------------------------------------|
G|-5-5-X-5-X-5-X--------------------------------------|
D|-5-5-X-5-X-5-X-------3-3-X-3-X-3-X------------------|
A|-3-3-X-3-x-3-X-------3-3-X-3-X-3-X------------------|
E|---------------------1-1-X-1-X-1-X------------------|
     You told me all   these lies

(Dire-Diretsong strumming dito ng power chords)

E|-----------------------|
B|-----------------------|
G|-5-5-5-5-5-5-5---------|
D|-5-5-5-5-5-5-5---------|
A|-3-3-3-3-3-3-3---------|
E|-----------------------|
 I didn't see it coming

E|-----------------------|
B|-----------------------|
G|-7-7-7-7-7-7-7---------|
D|-7-7-7-7-7-7-7---------|
A|-5-5-5-5-5-5-5---------|
E|-----------------------|
  I didn't see it happening

E|-----------------------|
B|-----------------------|
G|-8-8-8-8-8-8-8---------|
D|-8-8-8-8-8-8-8---------|
A|-6-6-6-6-6-6-6---------|
E|-----------------------| 
  That one day you'd be leaving me 

E|----------------|
B|----------p-----|
G|-10--10---a-----|
D|-10--10---u-----|
A|--8---8---s-----|
E|----------e-----| 
  hanging   

Chorus: (may kasama din na lead dito)

E|----------------------|
B|----------------------|
G|----------------------|
D|----------------------|
A|--7/8-8-X-8-X-6-X-----|
E|--5/6-6-X-6-X-8-X-----| 
        Im  happy you

E|----------------------|
B|----------------------|
G|--7/8-8-X-8-X-6-X-----|
D|--7/8-8-X-8-X-8-X-----|
A|--5/6-6-X-6-X-8-X-----|
E|----------------------| 
     left me

E|----------------------|
B|----------------------|
G|----------------------|
D|----------------------|
A|--7/8-8-X-8-X-6-X-----|
E|--5/6-6-X-6-X-8-X-----| 
        I prayed that u  

E|----------------------|
B|----------------------|
G|--7/8-8-X-8-X-6-X-----|
D|--7/8-8-X-8-X-8-X-----|
A|--5/6-6-X-6-X-8-X-----|
E|----------------------| 
         hurt me

E|----------------------|
B|----------------------|
G|-7-7-X-7-X-7-X--------|
D|-7-7-X-7-X-7-X--------|
A|-5-5-X-5-X-5-X--------|
E|----------------------|
   Its a magical 

E|--------------------|
B|--------------------|
G|--------------------|
D|--5-5-X-5-X-5-X-----|
A|--5-5-X-5-X-5-X-----|
E|--3-3-X-3-X-3-X-----|
     Feeling

E|--------------------------|
B|--------------------------|
G|--5q----------------------|
D|--5q----------------------|
A|--3q----------------------|
E|--------------------------|
   knowin that ur not meant for

E|-----------|
B|-----p-----|
G|-----a-----|
D|-3---u-----|
A|-3---s-----|
E|-1---e-----|
   me


Intro 2:

E|----------------------| 
B|----------------------| 
G|----------------------| (2 times)
D|----------------------|
A|--7/8-8-X-8-X-6-X-----|
E|--5/6-6-X-6-X-8-X-----|

VErse 2:

E|----------------------|
B|----------------------|
G|----------------------|
D|----------------------|
A|--7/8-8-X-8-X-6-X-----|
E|--5/6-6-X-6-X-8-X-----|
       Heavy rains 

E|----------------------|
B|----------------------|
G|----------------------|
D|----------------------|
A|--7/8-8-X-8-X-6-X-----|
E|--5/6-6-X-6-X-8-X-----|
        poured on me

E|----------------------|
B|----------------------|
G|----------------------|
D|----------------------|
A|--5/6-6-X-6-X-6-X-----|
E|--3/4-4-X-4-X-4-X-----|
      Lightning struck and 

E|----------------------|
B|----------------------|
G|----------------------|
D|----------------------|
A|--7/8-8-X-8-X-6-X-----|
E|--5/6-6-X-6-X-8-X-----|
      hit me    slap

E|----------------------|
B|----------------------|
G|----------------------|
D|----------------------|
A|--7/8-8-X-8-X-6-X-----|
E|--5/6-6-X-6-X-8-X-----|
    twice, step thrice

E|----------------------|
B|----------------------|
G|----------------------|
D|----------------------|
A|--7/8-8-X-8-X-6-X-----|
E|--5/6-6-X-6-X-8-X-----|
        It felt so real

E|----------------------|
B|----------------------|
G|----------------------|
D|----------------------|
A|--5/6-6-X-6-X-6-X-----|
E|--3/4-4-X-4-X-4-X-----|
       Baby what's the 
[ Tab from: http://www.guitartabs.cc/tabs/m/mymp/magical_feeling_tab_ver_3.html ]
E|----------------------|
B|----------------------|
G|----------------------|
D|----------------------|
A|--7/8-8-X-8-X-6-X-----|
E|--5/6-6-X-6-X-8-X-----| 
    Deal

Refrain: (May kasama ng lead dito)

E|----------------------------------------------------|
B|----------------------------------------------------|
G|-5-5-X-5-X-5-X--------------------------------------|
D|-5-5-X-5-X-5-X-------3-3-X-3-X-3-X------------------|
A|-3-3-X-3-x-3-X-------3-3-X-3-X-3-X------------------|
E|---------------------1-1-X-1-X-1-X------------------|
      Looked into my   eyes........

E|----------------------------------------------------|
B|----------------------------------------------------|
G|-5-5-X-5-X-5-X--------------------------------------|
D|-5-5-X-5-X-5-X-------3-3-X-3-X-3-X------------------|
A|-3-3-X-3-x-3-X-------3-3-X-3-X-3-X------------------|
E|---------------------1-1-X-1-X-1-X------------------|
     You told me all   these lies

(Dire-Diretsong strumming dito ng power chords)

E|-----------------------|
B|-----------------------|
G|-5-5-5-5-5-5-5---------|
D|-5-5-5-5-5-5-5---------|
A|-3-3-3-3-3-3-3---------|
E|-----------------------|
 I didn't see it coming

E|-----------------------|
B|-----------------------|
G|-7-7-7-7-7-7-7---------|
D|-7-7-7-7-7-7-7---------|
A|-5-5-5-5-5-5-5---------|
E|-----------------------|
  I didn't see it happening

E|-----------------------|
B|-----------------------|
G|-8-8-8-8-8-8-8---------|
D|-8-8-8-8-8-8-8---------|
A|-6-6-6-6-6-6-6---------|
E|-----------------------| 
  That one day you'd be leaving me 

E|----------------|
B|----------p-----|
G|-10--10---a-----|
D|-10--10---u-----|
A|--8---8---s-----|
E|----------e-----| 
  hanging   

Chorus: (may kasama din na lead dito)

E|----------------------|
B|----------------------|
G|----------------------|
D|----------------------|
A|--7/8-8-X-8-X-6-X-----|
E|--5/6-6-X-6-X-8-X-----| 
        Im  happy you

E|----------------------|
B|----------------------|
G|--7/8-8-X-8-X-6-X-----|
D|--7/8-8-X-8-X-8-X-----|
A|--5/6-6-X-6-X-8-X-----|
E|----------------------| 
     left me

E|----------------------|
B|----------------------|
G|----------------------|
D|----------------------|
A|--7/8-8-X-8-X-6-X-----|
E|--5/6-6-X-6-X-8-X-----| 
        I prayed that u  

E|----------------------|
B|----------------------|
G|--7/8-8-X-8-X-6-X-----|
D|--7/8-8-X-8-X-8-X-----|
A|--5/6-6-X-6-X-8-X-----|
E|----------------------| 
         hurt me

E|----------------------|
B|----------------------|
G|-7-7-X-7-X-7-X--------|
D|-7-7-X-7-X-7-X--------|
A|-5-5-X-5-X-5-X--------|
E|----------------------|
   Its a magical 

E|--------------------|
B|--------------------|
G|--------------------|
D|--5-5-X-5-X-5-X-----|
A|--5-5-X-5-X-5-X-----|
E|--3-3-X-3-X-3-X-----|
     Feeling

E|--------------------------|
B|--------------------------|
G|--5q----------------------|
D|--5q----------------------|
A|--3q----------------------|
E|--------------------------|
   knowin that ur not meant for

E|-----------|
B|-----p-----|
G|-----a-----|
D|-3---u-----|
A|-3---s-----|
E|-1---e-----|
   me


Bridge:

E|---6---6---------------|
B|---6---6---------------|
G|---8---8---------------|
D|---8---8---------------|
A|---6---6---------------|
E|-----------------------|
    People say you're sorry 

E|------5q----------3-----|
B|---6--6q---t----3---3---|
G|------5q---a------------|
D|-----------p------------|
A|---5--------------------|
E|----------------3-------|
 but baby   dont you worry


E|-----3--------------|
B|---3---3------------|
G|--------------------|
D|--------------------|
A|---3----------------|
E|--------------------|
  Life has been easier 

E|----------|
B|----------|
G|----------|
D|-3--------|
A|-3--------|
E|-1--------|
 without you

(dalawa dito sa part na to)
E|----------------------|
B|----------------------|
G|----------------------|
D|-3333333333333--------|
A|-3333333333333--------|
E|-1111111111111--------|
  We should have done this earlier.


Chorus: (may kasama din na lead dito)

E|----------------------|
B|----------------------|
G|----------------------|
D|----------------------|
A|--7/8-8-X-8-X-6-X-----|
E|--5/6-6-X-6-X-8-X-----| 
        Im  happy you

E|----------------------|
B|----------------------|
G|--7/8-8-X-8-X-6-X-----|
D|--7/8-8-X-8-X-8-X-----|
A|--5/6-6-X-6-X-8-X-----|
E|----------------------| 
     left me

E|----------------------|
B|----------------------|
G|----------------------|
D|----------------------|
A|--7/8-8-X-8-X-6-X-----|
E|--5/6-6-X-6-X-8-X-----| 
        I prayed that u  

E|----------------------|
B|----------------------|
G|--7/8-8-X-8-X-6-X-----|
D|--7/8-8-X-8-X-8-X-----|
A|--5/6-6-X-6-X-8-X-----|
E|----------------------| 
         hurt me

E|----------------------|
B|----------------------|
G|-7-7-X-7-X-7-X--------|
D|-7-7-X-7-X-7-X--------|
A|-5-5-X-5-X-5-X--------|
E|----------------------|
   Its a magical 

E|--------------------|
B|--------------------|
G|--------------------|
D|--5-5-X-5-X-5-X-----|
A|--5-5-X-5-X-5-X-----|
E|--3-3-X-3-X-3-X-----|
     Feeling

E|--------------------------|
B|--------------------------|
G|--5q----------------------|
D|--5q----------------------|
A|--3q----------------------|
E|--------------------------|
   knowin that ur not meant for

E|----------|
B|----------|
G|----------|
D|-3--------|
A|-3--------|
E|-1--------|
   me

Chorus: (may kasama din na lead dito)

E|----------------------|
B|----------------------|
G|----------------------|
D|----------------------|
A|--7/8-8-X-8-X-6-X-----|
E|--5/6-6-X-6-X-8-X-----| 
        Im  happy you

E|----------------------|
B|----------------------|
G|--7/8-8-X-8-X-6-X-----|
D|--7/8-8-X-8-X-8-X-----|
A|--5/6-6-X-6-X-8-X-----|
E|----------------------| 
     left me

E|----------------------|
B|----------------------|
G|----------------------|
D|----------------------|
A|--7/8-8-X-8-X-6-X-----|
E|--5/6-6-X-6-X-8-X-----| 
        I prayed that u  

E|----------------------|
B|----------------------|
G|--7/8-8-X-8-X-6-X-----|
D|--7/8-8-X-8-X-8-X-----|
A|--5/6-6-X-6-X-8-X-----|
E|----------------------| 
         hurt me

E|----------------------|
B|----------------------|
G|-7-7-X-7-X-7-X--------|
D|-7-7-X-7-X-7-X--------|
A|-5-5-X-5-X-5-X--------|
E|----------------------|
   Its a magical 

E|--------------------|
B|--------------------|
G|--------------------|
D|--5-5-X-5-X-5-X-----|
A|--5-5-X-5-X-5-X-----|
E|--3-3-X-3-X-3-X-----|
     Feeling

E|--------------------------|
B|--------------------------|
G|--5q----------------------|
D|--5q----------------------|
A|--3q----------------------|
E|--------------------------|
   knowin that ur not meant for

E|-----------|
B|-----p-----|
G|-----a-----|
D|-3---u-----|
A|-3---s-----|
E|-1---e-----|
   me

Ending
E|----------------------| 
B|----------------------| 
G|----------------------| (2 times)
D|----------------------|
A|--7/8-8-X-8-X-6-X-----|
E|--5/6-6-X-6-X-8-X-----|

Yung ending nya ung ADlib. Diskarte nyo na yon.hehehe
Add nyo nlang ako sa Friendster nasa taas ung email add ko.

Peace men!


Comments