Mymp - Magical Feeling Chords & Tabs

 

Magical Feeling Chords & Tabs

Mymp Chords & Tabs

Version: 2 Type: Tab 0 ratings
1 star 2 stars 3 stars 4 stars 5 stars
comments

Magical Feeling Tab

magical feeling (SOLO) - MYMP
tab by - menard_03
menard 3rd yr hs in claret
this is my first tabs!!!! hope you'll enjoy it!!!!! (pakirate nmn tab k!!!!)

e[-------------------------------------------------6--------------------]
B[---------------------------------------------6h8----8~~-6--s11-9-8~~--]
G[----------------------6-8s10-8-6---6------6b--------------------------]
D[-86/////////////----8-----------8---8~~-------------------------------]
A[----------------------------------------------------------------------]
E[----------------------------------------------------------------------]
[ Tab from: http://www.guitartabs.cc/tabs/m/mymp/magical_feeling_tab_ver_2.html ]
e[--------------------6-6-9bf-11bf-9bfr-6~~--11-11bf--s16-14------------]
B[-6-8-6h8-8~~~-6-6h8----------------------------------------16-14------]
G[-----------------------------------------------------------------15-13]
D[----------------------------------------------------------------------]
A[----------------------------------------------------------------------]
E[----------------------------------------------------------------------]

e[-----------16b16b16b16b16b--------------------------------------------]
B[-----------16b16b16b16b16b---16-14h1616-14h1616-14h1616-14h1616-14h16-]
G[--15~~-15-------------------------------------------------------------]
D[----------------------------------------------------------------------]
A[----------------------------------------------------------------------]
E[----------------------------------------------------------------------]

e[--16bf-16bf-16bfr-----------------------------------------------------]
B[----------------------------------------------------------------------]
G[----------------------------------------------------------------------]
D[----------------------------------------------------------------------]
A[----------------------------------------------------------------------]
E[----------------------------------------------------------------------]

legend:
~~ - continuous bend
bf - bend full
bfr- bend release
h  - hammer
s  - slide
/  - tremolo or fast picking
Comments