Mymp - Love Moves Chords & Tabs

 

Love Moves Chords & Tabs

Mymp Chords & Tabs

Version: 6 Type: Tab 0 ratings
1 star 2 stars 3 stars 4 stars 5 stars
comments

Love Moves Tab

   
Song:LOve Moves 
Artist: MYMP
Album: Behind Accoustics
Tabbed: May 22, 2005 
Transcribe by: Erwin Serrano Quezon City/Pangasinan 
                 (winserrano@yahoo.com)

Mga dudes! sa lahat din ng fans ng MYMP, try nyu to, gnawa k lng simple to,
lalo n kay manhater, para sa sayo to alam ko fvorite mo to.



Chords pattern:
      G# C# F  D#m  Bb  C  F  Gm  Am  Ab   Bbm   Cm  E  Fm
E|----4---x---2---6----1---3---1---3---5---4----1----3---7---8-----------|
B|----4---4---2---7----1---3---1---3---5---4----2----4---7---9-----------|
G|----5---6---3---8----3---5---2---2---5---5----3----5---9---10----------|
D|----6---6---4---8----3---5---3---5---7---6----3----5---9---10----------|
A|----6---4---4---6----1---3---3---5---7---6----1----3---7---8-----------|
E|----4---x---2---x----x---x---1---3---5---4----x----x---0---------------|


INTRO:


       G#            C#                  F#
       
E|--------------------------------------------------------1-------------|
B|--------------------4---4--------------- ----------2------------------|
G|------------5-6------------6-5---------1---3--3-----------------------|
D|---------6------------------------------------------------------------|
A|--------------------4-------------------------------------------------|
E|-----4---------------------------------2------------------------------|

                      G#
E|----------------------------------------------------------------------|
B|------2--2hold--------------------------------------------------------|
G|------3--3hold------5-------------------------------------------------|
D|---------------------6------------------------------------------------|
A|----------------------6-----------------------------------------------|
E|-----------------------4----------------------------------------------|



G# 	   C#
Who'd have thought?
                 F#  
This is how the pieces fit?
C#
You and I
           F#            G#         C#
Shouldn't even try making sense of it
G#      C#
I forgot
               F#
How we ever came this far
C#                D#m
I believe we had reasons
     Cm                    C#m C#sus C#
But I don't know what they are
   Bb              C
So blame it on my heart, oh!

Chorus I:

 F     C      Gm
Love moves in mysterious ways
     Am       Bbm
It's always so surprising
     C#           Bb       C
When love appears over the horizon
 F      C             Gm
I'll love you for the rest of my days
    Am            Bb 
But still, it's a mystery of
C                   Dm
How you ever came to me
           Bb
Which only proves...
     F
Love moves...
 C             D    Bb       
In mysterious ways...

Verse II: (Do verse I chords)
[ Tab from: http://www.guitartabs.cc/tabs/m/mymp/love_moves_tab_ver_6.html ]
G# 	   C#
Heaven knows
               F#
Love is just a chance we take
         C#
We make trust
                  D#m           G# -G#
But then love demands a leap of faith
G#            C#
So hold me close
            F#
Never ever let me go
C#                    D#m       
'Cause even though we think we love
      C             C#
Which way the river flows
    Bb                C
It' not the way love goes, no!

Repeat Chorus
Adlib:
      G#              C#                 F# 
E|--------------------------------------------------------1-------------|
B|--------------------4---4--------------- ----------2------------------|
G|------------5-6------------6-5---------1---3--3-----------------------|
D|---------6------------------------------------------------------------|
A|--------------------4-------------------------------------------------|
E|-----4---------------------------------2------------------------------| 

     
       
E|----------------------------------------------------------------------|
B|-----2^4s6--4^6s7----------------------4-2----------------------------|
G|--------------------3-3-----5-5------------5--3--1--------------------|
D|----------------------------------------------------------------------|
A|--0-4-----------6-----------------------------------------------------|
E|----------------------4-----------------------------------------------|



Bridge:

          C#                  Bb
Like the ticking of the clock
           B           C#
Two hearts beat as one
C#-D#m                   Abm
But I'll never understand
              C#  C#  D# 
The ways it's done...

Chorus III:

 Ab     D#     Bbm
Love moves in mysterious ways
     Cm      C#
It's always so surprising
     E          C#      D#
When love appears over the horizon
 Ab      D#            Bbm
I'll love you for the rest of my days
    Cm            C#
But still, it's a mystery of
C#                   Fm
How you ever came to me
           C#
Which only proves...
     Ab
Love moves...
 D#             G#
In mysterious ways...


Outro: G# C# F#

       G#            C#                  F#
       
E|--------------------------------------------------------1-1-----------|
B|--------------------4---4--------------- ----------2--------2---------|
G|------------5-6------------6-5---------1---3--3---------------3-------|
D|---------6------------------------------------------------------4-----|
A|--------------------4---------------------------------------------4---|
E|-----4---------------------------------2----------------------------3-|


          G# pause
E|----------------------------------------------------------------------|
B|--------4------------------------------- -----------------------------|
G|--------5-------------------------------------------------------------|
D|--------6-------------------------------------------------------------|
A|--------6-------------------------------------------------------------|
E|--------4-------------------------------------------------------------|


For any comments, you can send your messages at (winserrano@yahoo.com)
sa friendster ko. or u can also mek ur call or txt sa (09223006427)
vote plz!!! tnxx
Comments