Mymp - Love Moves Chords & Tabs

 

Love Moves Chords & Tabs

Mymp Chords & Tabs

Version: 4 Type: Tab 0 ratings
1 star 2 stars 3 stars 4 stars 5 stars
comments

Love Moves Tab

Love Moves
MYMP
tabbed by: [sHrwN] sHerwin Bulala
sherwin_807@yahoo.com

For best plucking pattern listen to the song!!.,

capo 1st fret

intro:
|------------------------------------------------0----|
|-----------0--1--3----------3-1-0-----------------1--|
|------0----0-----------0----------0-0--2----2--------|
|----0---0------------0---0----------3-----3---3------|
|-------------------3---------------------------------|
|--3--------------------------------------------------|

verse:
|------------------------0--|------------------|-------------|
|--0---------3---1----------|--1---1--------0--|--0----1--0--|
|--0-------0-----2---2------|--0---2----2---0--|--0----0--0--|
|--------2-------3-----3----|------3--3--------|-------------|
|------3--------------------|--3---------------|-------------|
|--3------------------------|---------------3--|--3----3--3--|

|--------------------------|-----5--------------0-------3--|
|--------3---1----1-0---1--|-6-----------3--1------0-1--1--|
|------0-----2----2-0---0--|---5--------------2----2-2-----|
|----2-------3----3-0------|-----------4-------------------|
|--3--------------------3--|-5-------2------0------0-0--0--|
|--------------------------|-------------------------------|

|--2--------------|
|-------5------4--|
|-------4------4--|
|--0--------------|
|-------4--0-2----|
|-----------------|

chorus:[plucking]
|----2--------2--------------|----2--------2--------------------------|
|----4---0----4---0---5---4--|----4---0----4---0---5---5---0---5---4--|
|--1/4---2----4---2---5---4--|--1/4---2----4---2---5---4---2---4---4--|
|--2/4---2----4---2---5---4--|--2/4---2----4---2---5---6---2---6---4--|
|--2/2---0----2---0---3---2--|--2/2---0----2---0---3---4---0---4---2--|
|--0/------------------------|--0/------------------------------------|

|--4----0--|--------|
|--5----0--|--1--0--|
|--4----2--|--0--0--|
|--6----2--|--------|
|--4----0--|--------|
|----------|--3--3--|

[repeat verse&chorus!!]
[ Tab from: http://www.guitartabs.cc/tabs/m/mymp/love_moves_tab_ver_4.html ]
addlib:
|------------------------------------------------0--|
|-----------0--1--3----------3-1-0------------------|
|------0----0-----------0----------0-0--2----2------|
|----0---0------------2---2----------3-----3---3----|
|-------------------3-------------------------------|
|--3------------------------------------------------|

|----------0----0-1-0------------|-------------|
|------1-3----3-------1-------0--|--3-1-0------|
|------0-0----0----------2-2-----|--0-0---2-0--|
|----2------------3--------------|-------------|
|--3-----------------------------|-------------|
|--------------------------3-----|--3----------|

bridge:
|--------------------0----------6-----------------|
|--5---1---3----3----2------6-------3----5---5/7--|
|--5---2---3----3-------------------4----5---5/7--|
|---------------------------------------------/---|
|--3---0---1----1--0------5--------------3---3/5--|
|-----------------------------------3-------------|

chorus:[plucking]
|----5--------5--------------|----5--------5--------------------------|
|----7---3----7---5---8---7--|----7---3----7---5---8---8---3---8---7--|
|--4/7---5----7---5---8---7--|--4/7---5----7---5---8---7---5---7---7--|
|--5/7---5----7---5---8---7--|--5/7---5----7---5---8---9---5---9---7--|
|--5/5---3----5---3---6---5--|--5/5---3----5---3---6---7---3---7---5--|
|--3/------------------------|--3/------------------------------------|

ending:
|------------------------------------------------0-------|
|-----------0--1--3----------3-1-0-------------------1---|
|------0----0-----------0----------0-0--2----2-------2---|
|----0---0------------0---0----------3-----3---3-----3---|
|-------------------3------------------------------------|
|--3-----------------------------------------------------|

|-----------0--------|--12----------------|
|-------------0------|-----12-------------|
|--------0------0----|--------12----------|
|------0----------0--|-----------12-------|
|----2---------------|---------------10---|
|--3-----------------|--------------------|
Comments