Mymp - Love Moves Chords & Tabs

 

Love Moves Chords & Tabs

Mymp Chords & Tabs

Version: 2 Type: Tab 0 ratings
1 star 2 stars 3 stars 4 stars 5 stars
comments

Love Moves Tab

   
Song         : Love Moves
Artist       : MYMP
Album        : Versions

Transcribe by: Walter Michael De la Cruz - SLU Baguio City - 09224012464
              (Walterfdelacruz@yahoo.com)

Tabbed       : April 1, 2005

Note: 
This is my 2nd tab to this song.. Andame kase ngrerequest nito eh. Kaya Napilitan ako
gawan. Mas gusto ko p dn 2 version MYMP kesa kay Nina. MYMP Rulez!!

This song goes sa lahat ng nag request nito skin. 
Tham, Pauline, Mhei, Shane, Shiela, Tina, Hazel, Aicel, Jeflyn,Arlene,
Gaienne,Rye Sa mga katropa ko mga ungaz na ksama ko Jersan,
Ace Tangent, Copez, Durante, Penis,
Palicage, Pong, Feleepee, fajaardo. Mga ate ko namely
Jennifer, flordeliza, aNabelle. We all rule.

Intro:

     G#			C#		F#
E|------------------*-------------------*---------------1----|
B|----------------4-*------------4------*--------------------|
G|----------5--6----*------6-------6--5-*-1----3---3------(3)|
D|-----6------------*----6--------------*--------------------|
A|---6---6----------*--4------4---------*--------------------|
E|-4----------------*-------------------*-2--2--------2------


Verse 1:

   G#		C#			F#
E|-4---*--------------4---------------*---------------|
B|-4---*----------4-------------------*----------2----|
G|-5---*--------6---6-----------------*--------3---3--|
D|-6---*------6-----------------------*-------4-------|
A|-6---*---4--------------------------*-----4---------|
E|-4---*------------------------------*--2------------|

Who'd have thought  this is how the  pieces fit?

     C#			    F#			G#    -     C#	
E|-------4--------------*----------2-------*-----------------------|
B|-----4---4------------*------------2-----*---------4-----4-t-----|
G|----6-----------------*--------3---------*--------5--5--5--a--6--|
D|---6------------------*------4-----------*------6-----6----p-6--|
A|-4--------------------*----4-------------*----6---------------4--|
E|----------------------*--2---------------*--4--------------------|
  You and I shouldn't  even try making   sense of it


    G#		     C#		   F#	
E|---------4----*------------4---*--------------------------|
B|-----------4--*--------4-------*----------2---------------|
G|-------5------*------6---6-----*--------3--3--------------|
D|-----6--------*-----6----------*------4-------------------|
A|---6----------*---4------------*----4---------------------|
E|-4------------*----------------*--2-----------------------|
  I forgot        how we ever  came this far


      Bbm 		   D#m7
E|----------1---------*-------------6----------------------|
B|-------2-----2------*-------------7----------------------|
G|-----3---------3----*---------6---6----------------------|
D|---3----------------*-------8----------------------------|
A|-1------------------*----6-------------------------------|
E|--------------------*------------------------------------|
   I believe we had     reasons but I

       Fm7                   Bbm7
E|---------8-------------*-----1-----------4--------------|
B|---------9-------------*--2-------1----2----------------|
G|------8--8-------------*--------------------------------|
D|---10------------------*--------------------------------|
A|-8---------------------*--1-------1-1-------------------|
E|-----------------------*--------------------------------|
   don't know what they    are

[ Tab from: http://www.guitartabs.cc/tabs/m/mymp/love_moves_tab_ver_2.html ]
           D#m          D-C
E|------------------------------------------------------|
B|------------------------------------------------------|
G|-------8-8-8-8-8---------7-5--------------------------|
D|-------8-8-8-8-8---------7-5--------------------------|
A|-------6-6-6-6-6---------5-3--------------------------|
E|------------------------------------------------------|
   So  blame it on my     heart,  oh


Chorus:
 
Chords used:

   F    Bbm7   Am   Dm7   Bb  C5    G#   C#  C  Gm
E|-1----1------5-----5----6----3----4----4---0---3----------------|
B|-1----3------5-----6----6----3----4----4---1---3----------------|
G|-2----2------5-----5----7----5----5----6---0---3----------------|
D|-3----3------7-----7----8----5----6----6---2---5----------------|
A|-3----1------7-----5----8----3----6----4---3---5----------------|
E|-1----X------5-----X----6----X----4----X-------3----------------|


   F - C            Gm                
Love moves  in mys/terious ways


       Am           Dm7                Bb       C5
It's  always so surprising when  love appears  over the horizon

     F  -   C                   Gm
I'll love  you for the  rest of my days

      Am             Dm7 
But  still, it's a mystery 

     Am               Dm7
How you ever came to  me

             Bb           Am   Am-Bb     Gm              F    G#-C#
Which only  proves love  moves              in mysterious  ways



Verse 2: The same in Verse 1

Heaven knows love is  just a chance we  take leap of faith
So hold me    close, never ever let me go
cos even though we   think we know   which way the river   flows
That's  not the way love  goes, no.



   F - C            Gm                
Love moves  in mys/terious ways


       Am           Dm7                Bb       C5
It's  always so surprising when  love appears  over the horizon

     F  -   C                   Gm
I'll love  you for the  rest of my days

      Am             Dm7 
But  still, it's a mystery 

     Am               Dm7
How you ever came to  me

             Bb           Am   Am-Bb     Gm              F    G#-C#
Which only  proves love  moves              in mysterious  ways


Adlib:

     G#			C#		F#
E|------------------*-------------------*---------------1----|
B|----------------4-*------------4------*--------------------|
G|----------5--6----*------6-------6--5-*-1----3---3------(3)|
D|-----6------------*----6--------------*--------------------|
A|---6---6----------*--4------4---------*--------------------|
E|-4----------------*-------------------*-2--2--------2------|

       Bbm          F#          G#
E|---------1---1--*--2--1----*-------------------------------|
B|-----2--4---4---*-------2--*--------------42-1-----------|
G|----------------*----------*--3-3-5--5------------3--1-----|
D|---3------------*----------*-------------------------------|
A|-1--------------*----------*-------------------------------|
E|----------------*--2-------*--4-4-4-----4------------------|


Bridge:

            C#                 F#m7              B
Like the  ticking of a clock  two hearts beat / as one

B   C#      Dm7            G#m            C#    D#
But I'll  never understand  the way it's  done


Repeat chorus 3 Frets higher
(Start with G#)


Comments,questions?? send me a message in friendster at Walterfdelacruz@yahoo.com or you 
text me or call me at 09224012464
Comments