Mymp - Kailan Chords & Tabs

 

Kailan Chords & Tabs

Mymp Chords & Tabs

Version: 2 Type: Tab 0 ratings
1 star 2 stars 3 stars 4 stars 5 stars
comments

Kailan Tab

   
March 15, 2005         updated on: March 17, 2005
10:48 pm                           08:15 pm       

Title: Kailan
Artist: MYMP
Album:Beyond Acoustic
Year: 2005
Track No.: 3

Tabbed by: John G. Bibal III
Tuning: Standard



NOTICE: Hey guys ang gals, this is the Tab for MYMP's Kailan.. This is one good song
	so i decided to make the tab.. Medyo magulo yung tab pero kung 
	tiyagaan niyo, makukuha niyo.. this tab is 97-98% correct.. ang galing kasi ni
CHIN (guitarist ng MYMP).. Pinahirapan niya ako.. hehe 
	Sa ibang tao, maaring maging masyadong mababa yung tono nung kanta sa tab na ito pero problema na nila
	yun kasi maaring sintrunado yung gitara nila.. hehe anyways thanks guys... HAVE FUN! ;o)




Intro: (Before You start playing, pls. read the notice above)
      
      D#m?              C#            Bbm          D#m        C#          BM7
                                                       ^        ^
e|-------------|--------------|---1------1----|----------|----------|-----------2----|
B|--7-----7----|---6-----6----|---2----2------|-------7--|------6---|---------4-4----|
G|------8---8--|-------6---6--|---3-----------|-------8--|------6---|-------3---3----|
D|----8--------|-----6--------|---3--3--------|----8-----|----6-----|-----4----------|
A|-------------|---4----------|---------------|--6-------|--4-------|---2------------|
E|--7----------|--------------|---------------|----------|----------|----------------|

       F          D#?      Bb7     B      

e|-------1----|---------|---1---|--2------------------------------------------------|
B|-----1---1--|--6-6----|---3---|--4------------------------------------------------|
G|------------|--8---8--|---1---|--4------------------------------------------------|
D|------------|--8------|---3---|--4------------------------------------------------|
A|------------|---------|---1---|--2------------------------------------------------|
E|--1---------|---------|-------|---------------------------------------------------|


Verse 1:

      F#            Bm           F#/BM7         F#       D#m      D#m       C#                           
                                        ^                                       ^
e|----------1--|--------1----|----------2--|--2-----2-|------------------|---------|
B|-------------|--2---2---2--|-------4--4--|--2---2---|-------7-------7--|-----6---|
G|-------3-----|-------------|-----3----3--|--3-3-----|-----8-------8----|-----6---|
D|-----4-------|-------------|---4---------|--4-------|---8-------8------|---6-----|
A|---4---------|--2----------|-------------|--4-------|-6-------6--------|-4-------|
E|-2-----------|-------------|-2-----------|--2-------|------------------|---------|

           B              G#m       G#m      G#m       G#m  
                      
e|---------------4--|---------------------------------------------|
B|----------4--4----|---------4---------4---------4---------4-----|
G|--------4---------|-----------4---------4---------4---------4---|
D|------4-----------|------6----------6---------6---------6-------|
A|----2-------------|----6----------6---------6---------6---------|
E|------------------|--4----------4---------4---------4-----------|

      C#           C#        F#              B?               
                     ^
e|--4-----4----------4-|-2---------|-2----2-------2------|
B|--6-------6--------6-|-2---2-2---|-2--2---2---2---2----|
G|--6--6-----------6---|-3-3-----3-|-4--------4-4--------|
D|--6------------6-----|-4---------|-4----------4--------|
A|--4----------4-------|-4---------|-2-------------------|
E|---------------------|-2---------|-2-------------------|



Refrain:

        B              C#         Bbm         D#m     C#         BM7
                                                 ^       ^             ^
e|--------------|-------------|-----------|--------|-------|----------------|
B|--------4-4---|---------6---|-------6---|------7-|-----6-|---------4-4----|
G|------4-----4-|-------6---6-|---------6-|------8-|-----6-|-------3---3----|
D|----4---------|-----6-------|----8------|----8---|---6---|-----4-----4----|
A|--2-----------|-2-4---------|--8--------|--6-----|-4-----|-0-2------------|
E|--------------|-------------|6----------|--------|-------|----------------|

        F         D#?    Bb

e|------1----|---------|--6-----|
B|----1---1--|---6-6---|--6-----|
G|-----------|---8---8-|--7-----|
D|-----------|---8-----|--8-----|
A|-----------|---------|--8-----|
E|--1--------|---------|--6-----|



Verse 2:

       F#            Bm           F#/BM7         F#       D#m      D#m       C#                           
                                                                               ^
e|----------1--|--1-----1----|----------2--|--2----2--|------------------|-------------|
B|-------------|--2---2---2--|-------4-----|--2--2----|-------7-------7--|-----6-------|
G|-------3-----|--3-3--------|-----3-------|--3-------|-----8-------8----|-----6-------|
D|-----4-------|-------------|---4---------|--4-------|---8-------8------|---6---------|
A|---4---------|-------------|-------------|--4-------|-6-------6--------|-4-----------|
E|-2-----------|-------------|-2-----------|--2-------|------------------|-------------|

          B                              G#m       G#m      G#m       G#m  
                                 ^
e|-------------------------------2-|--------------------------------------------------|
B|----------4---4---------4---4--4-|-------4---------4---------4---------4------------|
G|--------4---4---4-----4---4----4-|---------4---------4---------4---------4----------|
D|------4-------------4------------|-----6----------6---------6---------6-------------|
A|----2-------------2--------------|---6----------6---------6---------6---------------|
E|---------------------------------|-4----------4---------4---------4-----------------|

     C#           C#        F#              B?               
                     ^
e|--4-----4----------4-|-2---------|-2----2-------2------|
B|--6-------6--------6-|-2---2-2---|-2--2---2---2---2----|
G|--6--6-----------6---|-3-3-----3-|-4--------4-4--------|
D|--6------------6-----|-4---------|-4----------4--------|
A|--4----------4-------|-4---------|-2-------------------|
E|---------------------|-2---------|-2-------------------|



Refrain:

        B              C#         Bbm         D#m     C#         BM7
                                                 ^       ^             ^
e|--------------|-------------|-----------|--------|-------|-------------------------|
B|--------4-4---|---------6---|-------6---|------7-|-----6-|---------4-4-------------|
G|------4-----4-|-------6---6-|---------6-|------8-|-----6-|-------3---3-------------|
D|----4---------|-----6-------|----8------|----8---|---6---|-----4-----4-------------|
A|--2-----------|-2-4---------|--8--------|--6-----|-4-----|-0-2---------------------|
E|--------------|-------------|6----------|--------|-------|-------------------------|

       F         D#?    Bb

e|------1----|---------|--6-----|
B|----1---1--|---6-6---|--6-----|
G|-----------|---8---8-|--7-----|
D|-----------|---8-----|--8-----|
A|-----------|---------|--8-----|
E|--1--------|---------|--6-----|




Chorus:
[ Tab from: http://www.guitartabs.cc/tabs/m/mymp/kailan_tab_ver_2.html ]
         D#m           G#m            C#             F#         B    C#   Bbm       D#m      C#             Bb7        
              ^               ^                                                                ^
e|---------------|------------4---|--4--4----|-----2------2-|--2--|-4--|---6--|-6--------|-------|-----------1----1---1----|
B|------------7--|----------4-4-4-|--6-------|-----2------2-|--4--|-6--|---6--|-7------7-|----6--|-------3-----3--3-----3--|
G|------8-----8--|--------4-------|--6----6--|-----3------3-|--4--|-6--|---6--|-8--------|----6--|-----1---1------1--------|
D|----8-----8----|----------------|--6-------|--------------|--4--|-6--|---8--|-8----8---|--6----|---3------------3--------|
A|--6-----6------|-6--------------|--4-------|--------------|--2--|-4--|---8--|-6--6-----|4------|-1--------------1--------|
E|---------------|-----4----------|----------|--2----2--2---|-----|----|---6--|----------|-------|-------------------------|




         D#m          G#m             C#             F#         B   C#   Bbm     D#m       C#          F#          
              ^               ^                                                             ^
e|--------------|-------------4---|--4--4----|-----2------2-|--2---4-----6--|-6--------|-------|------------2-------------|
B|------------7-|-----------4-4-4-|--6-------|-----2------2-|--4---6-----6--|-7------7-|----6--|----------2---------------|
G|------8-----8-|---------4-------|--6----6--|-----3------3-|--4---6-----6--|-8--------|----6--|--------3-----------------|
D|----8-----8---|-----------------|--6-------|--------------|--4---6-----8--|-8----8---|--6----|------4-------------------|
A|--6-----6-----|--6--------------|--4-------|--------------|--2---4-----8--|-6--6-----|4------|----4---------------------|
E|--------------|------4----------|----------|--2----2--2---|------------6--|----------|-------|--2-----------------------|



Adlib:

e|---------------2--4/6--6--4--2---4/6--4--2---4/6----------------------2---2----------------2--4--6--9/11----------|
B|---------2--3--2--4/7--7--4--2---4/7--4--2---4/7-------------2/3-2--2---2---2---------2-3--2--4--7--9/11--11--7---|
G|-1/3--3--3--4------------------------------------------------3/4-3--------------1-1/3-3-4-------------------------|
D|------4-------------------------------------------8-8--6--4-------------------------------------------------------|
A|------------------------------------------------------------------------------------------------------------------|
E|------------------------------------------------------------------------------------------------------------------|



e|-------------------------------2/4--2---|
B|---------------------------2-4-2/4--2---|
G|---6h8--6--------------3-4--------------|
D|----------6--4-4---4-4------------------|
A|----------------------------------------|
E|----------------------------------------|



Verse 3:



       G#m       G#m      G#m       G#m  
                      
e|-----------------------------------------------------------------|
B|---------4---------4---------4---------4-------------------------|
G|-----------4---------4---------4---------4-----------------------|
D|------6----------6---------6---------6---------------------------|
A|----6----------6---------6---------6-----------------------------|
E|--4----------4---------4---------4-------------------------------|



     C#           C#        F#         
                     ^
e|--4-----4----------4-|-2------------|
B|--6-------6--------6-|-2---2-2------|
G|--6--6-----------6---|-3-3-----3----|
D|--6------------6-----|-4------------|
A|--4----------4-------|-4------------|
E|---------------------|-2------------|


Refrain:



        B              C#         Bbm         D#m     C#         BM7
                                                 ^       ^             ^
e|--------------|-------------|-----------|--------|-------|-------------------------|
B|--------4-4---|---------6---|-------6---|------7-|-----6-|---------4-4-------------|
G|------4-----4-|-------6---6-|---------6-|------8-|-----6-|-------3---3-------------|
D|----4---------|-----6-------|----8------|----8---|---6---|-----4-----4-------------|
A|--2-----------|-2-4---------|--8--------|--6-----|-4-----|-0-2---------------------|
E|--------------|-------------|6----------|--------|-------|-------------------------|

        F         D#?    Bb

e|------1----|---------|--6-----|
B|----1---1--|---6-6---|--6-----|
G|-----------|---8---8-|--7-----|
D|-----------|---8-----|--8-----|
A|-----------|---------|--8-----|
E|--1--------|---------|--6-----|



Chorus 2:



         D#m                   G#m           C#            F#      B    C#    Bbm       D#m      C#             Bb7        
              ^                      ^                                                             ^
e|----------------------|------------4---|--4--4----|-----2---2-|--2--|-4--|---6--|-6-|-------|-------|-----------1----1---1----|
B|------------7---------|----------4-4-4-|--6-------|-----2---2-|--4--|-6--|---6--|-7-|-----7-|----6--|-------3-----3--3-----3--|
G|------8-----8--6--3--4|--------4-------|--6----6--|-----3---3-|--4--|-6--|---6--|-8-|-------|----6--|-----1---1------1--------|
D|----8-----8-----------|----------------|--6-------|-----------|--4--|-6--|---8--|-8-|---8---|--6----|---3------------3--------|
A|--6-----6-------------|-6--------------|--4-------|-----------|--2--|-4--|---8--|-6-|-6-----|4------|-1--------------1--------|
E|----------------------|-----4----------|----------|--2----2---|-----|----|---6--|---|-------|-------|-------------------------|

         D#m                  G#m           C#           F#      B   C#     Bbm     D#m       C#          F#          
              ^                                                                                 ^
e|----------------------|--------------|--4--4----|-----2---2-|--2-|--4--|---6--|-6--------|-------|------------2-------------|
B|------------7---------|-----------4--|--6-------|-----2---2-|--4-|--6--|---6--|-7------7-|----6--|----------2---------------|
G|------8-----8--6--3--4|---------4----|--6----6--|-----3---3-|--4-|--6--|---6--|-8--------|----6--|--------3-----------------|
D|----8-----8-----------|--------------|--6-------|-----------|--4-|--6--|---8--|-8----8---|--6----|------4-------------------|
A|--6-----6-------------|--6-----------|--4-------|-----------|--2-|--4--|---8--|-6--6-----|4------|----4---------------------|
E|----------------------|------4-------|----------|--2----2---|----|-----|---6--|----------|-------|--2-----------------------|



    B   C#   Bbm     D#m       C#            
                                                              
e|--2---4-----6--|-6--------|-------|
B|--4---6-----6--|-7------7-|----6--|
G|--4---6-----6--|-8--------|----6--|
D|--4---6-----8--|-8----8---|--6----|
A|--2---4-----8--|-6--6-----|4------|
E|------------6--|----------|-------|



				-= E         N          D=-


LYRICS:

Verse 1:


Bakit kaya nangangamba
Sa tuwing ika'y nakikita
Sana nama'y magpakilala


Ilang ulit nang nagkabangga
Aklat kong dala'y pinulot mo pa
Di ka pa rin nagpakilala

Refrain:


Bawat araw sinusundan
Di ka pa rin tumitingin
Anong aking dapat gawin

Verse 2:


Bakit kaya umiiwas
Binti ko ba'y mayroong gasgas
Nais ko nang magpakilala


Dito'y meron sa puso ko
Munting puwang laan sayo
Maaari na ba'ng magpakilala


(repeat refrain)

Chorus:

Kailan, kailan mo ba mapapansin
Ang aking lihim
Kahit anong aking gawin
di mo pinapansin


Kailan, kailan hahaplusin ang pusong
bitin na bitin
Kahit anong gawing lambing
Di mo pa rin pansin

(Adlib)

(repeat 2nd part of verse 2)

(repeat refrain)

(repeat chorus)


Kahit anong aking gawin
Di mo pinapansin...


LEGEND:

h = hammer
^ = upstroke




_______________________________________________________________________________________
***************************************************************************************
Hi sa mga students ng II-Molave of Bicol University batch 2004-05!! Mga kaklase,, hehe
Summer na... hi to: DAYON,DENNIS,REUBEN,KIMBERJOHN,ANTON,XYRUZ,JOEFFREI, at ang
pambansang bading si DEODEL hehe (joke lang) Si JOEY ang tunay na bading...
may dwende sa kanyang nunal!! hahaha                                                                 
I would like to dedicate my efforts to Janina S. Alejo... hehe        _ _
                       					             ( V )
   								      "V"		
_______________________________________________________________________________________
***************************************************************************************


Any Comments and/or suggestions, just e-mail me:
jayjaybibal@yahoo.com
Comments