Mymp - Fixing A Broken Heart Chords & Tabs

 

Fixing A Broken Heart Chords & Tabs

Mymp Chords & Tabs

Version: 1 Type: Tab 0 ratings
1 star 2 stars 3 stars 4 stars 5 stars
comments

Fixing A Broken Heart Tab

title: fixing a broken heart
ARTIST: MYMP (nga ba?) ▄
tabs by: raf_fermin "b2"

note: i dont really think that this is part of their album, hehehe!▄..
just saw them singing this song in homeboy! hahaha! ganda mo  "bebe ju (y not? hehehe)"  
here it is... gudluck! w8 1 more thing! play with the strings! oryt? this is just the 
tabs. go!


INTRO:
-------------------------------|
----2h3-0-2--------------------|
---2----2-2--------------------|
--2----------------------------|
-0-----------------------------|
-------------------------------|

VERSE/CHORUS:
---------------2-----------------|
-2-------------3-----------------|
-2-------2-2---2----1h2----------|
-2---2---4-4---4----2------------|
-0---2---4-4---2----2------------|
-----4---------------------------|
[ Tab from: http://www.guitartabs.cc/tabs/m/mymp/fixing_a_broken_heart_tab.html ]
REFRAIN:
-------------2---------0--------|
--------2h3--3---2h3---0--------|
-2------2----2---2-----1--------|
-4--2---2----4---2-----2--------|
-4--2--------2---------2--------|
----4------------------0--------|
(chorus)


VERSE:
---------------2-----------------|
-2-------------3-----------------|
-2-------2-2---2----1h2----------|
-2---2---4-4---4----2------------|
-0---2---4-4---2----2------------|
-----4---------------------------|
(chorus/bridge)


BRIDGE:(strumming)

------2----2--------2------------|
------2----3---2----3------------|
------3----2---2----2---1--------|
-2----4----4---2--------2--------|
-2----4----2------------2--------|
------2----2---------------------|
(chorus)

im pretty sure u guys got this. just oweys play with the strings, specially mymp songs. 
ba?) till hir. questions? --> rafaelmiguelfermin@yahoo.com! "b1 kainis ka nag lo ka 
kiddin! hehehe! not mad! peace out pipol!"


╗elo b1! hehehe. put this song in the list! ait? nwy, tc oweys, as oweys! kundi????? 
mail! tnx! mag kwento kaya ako d2! hehehe! kiddin. oweys remember??? stay cool! be good in 
nyak!!! hahaha ambaduy ah! nwy, till hir. good gurl kaw 4evr...cute tau!ź
Comments