Mymp - Every Little Thing He Does Is Magic Chords & Tabs

 

Every Little Thing He Does Is Magic Chords & Tabs

Mymp Chords & Tabs

Version: 2 Type: Tab 0 ratings
1 star 2 stars 3 stars 4 stars 5 stars
comments

Every Little Thing He Does Is Magic Tab

EVERY LITTLE THING HE DOES IS MAGIC
MYMP

johnsantos_17@yahoo.com

Standard Tuning: (EADGBE)

Intro:

E------------------------------
B----5------5-------5----------
G---4-4----4-4-----4-4-----4---
D------------------------------
A-0-------2------0-------2-----
E----------------------------4-

E------------------------------
B----5------5-------5----------
G---4-4----4-4-----4-4-----4---
D------------------------------
A-0-------2------0-------2-----
E----------------------------4-

Verse:
[ Tab from: http://www.guitartabs.cc/tabs/m/mymp/every_little_thing_he_does_is_magic_tab_ver_2.html ]
E------------------------------
B----5------5-------5----------
G---4-4----4-4-----4-4-----4---
D------------------------------
A-0-------2------0-------2-----
E----------------------------4-

E-------------|-----------------
B--0--2--4--5-|-2--4------------------
G--1--2--4--4-|-2--4------------------
D-----------2-|------------------
A-----0--2----|-0--2----------------
E--0----------|------------------

E-------------
B--0--2--4--5-
G--1--2--4--4-
D-----------2-hold
A-----0--2----
E--0----------

Chorus:

E--------------
B----------5-5-
G--4-4-4---4-4-play 4x
D--4-4-4---2-2-
A--2-2-2-------
E----------0-0-
Comments