Mymp - Every Little Thing He Does Is Magic 3 Chords & Tabs

 

Every Little Thing He Does Is Magic 3 Chords & Tabs

Mymp Chords & Tabs

Version: 1 Type: Tab 1 rating
1 star 2 stars 3 stars 4 stars 5 stars
comments

Every Little Thing He Does Is Magic 3 Tab

   
Song: Every little thing he does is magic
Artist: MYMP
Transcriber: Arvil M. Agomaa
             (Philippines)

Pretty nice song and pretty simple too! =)
It's been a while since the last time i transcribed
tabs, so here you go guys! Try it! 

Intro: 

e|-----0----------0----------0------------------|
B|-------4----------4----------4--------4-----4-|
G|---4-----4----4-----4----4-----4----4-----4---|play twice
D|----------------------------------------------|
A|-0----------2----------0----------2-----------|
E|----------------------------------------4-----|

Verse:

e|-----0----------0----------0------------------|
B|-------4----------4----------4--------4-----4-|
G|---4-----4----4-----4----4-----4----4-----4---|play until the 1st
D|----------------------------------------------|verse is done
A|-0----------2----------0----------2-----------|
E|----------------------------------------4-----|

e|------------| 
B|--0--2---4--| note: those (#)'s means	
G|--1--2---4--| you can choose what string
D|------------| you want to pluck. You won't
A|----(0)-(2)-| really notice the difference.
E|--0-(0)-(0)-| 

|---| You'll have to play  		  |-0-|
|-0-| this after the 1st verse		  |-0-|
|-1-| and replace it with something like: |-0-| for the others.
|---|					  |-0-|
|---|					  |-0-|
|-0-|					  |-0-|

Chorus:

Just play 
[ Tab from: http://www.guitartabs.cc/tabs/m/mymp/every_little_thing_he_does_is_magic_3_tab.html ]
(I don't really have to tab it! Just strum it!)
B - E 3 times then C - D then do the 

e|------------| 
B|--0--2---4--| note: those (#)'s means	
G|--1--2---4--| you can choose what string
D|------------| you want to pluck. You won't
A|----(0)-(2)-| really notice the difference.
E|--0-(0)-(0)-| 

|-0-|
|-0-|
|---|
|---|
|---|
|-0-|

Repeat Intro, Verse & Chorus riffs once

Bridge:

e|------3--------0---|
B|--------3--------3-|
G|----0--------2-----| Repeat this 6 times 
D|-----------0-------| 
A|--3----------------|
E|-------------------|

After playing that 6 times you have to strum it. Yes, Again!

Play C - D a couple of times then play:

e|------------| 
B|--0--2---4--| note: those (#)'s means	
G|--1--2---4--| you can choose what string
D|------------| you want to pluck. You won't
A|----(0)-(2)-| really notice the difference.
E|--0-(0)-(0)-| 

|-0-|
|-0-|
|---|
|---|
|---|
|-0-|


Now all you have to do is play it! BTW,

C     D     B     E
|-3-| |-5-| |-2-| |-X-|
|-5-| |-7-| |-4-| |-X-|
|-5-| |-7-| |-4-| |-1-|
|-5-| |-7-| |-4-| |-2-|
|-3-| |-5-| |-2-| |-2-|
|-X-| |-X-| |-X-| |-X-|

there you are! PERFECT! If there's any correction, send it to clip_like@yahoo.com

please just corrections. Not requests, ok? =)

And yeah, i wanna say hi to my girlfriend Jean! =)
Comments