Mymp - Eternal Flame Chords & Tabs

 

Eternal Flame Chords & Tabs

Mymp Chords & Tabs

Version: 4 Type: Tab 0 ratings
1 star 2 stars 3 stars 4 stars 5 stars
comments

Eternal Flame Tab

Tabbed by : MIGUEL ARRIOLA  miguelangelo_arriola@yahoo.com  
TAbbed on : May 17, 2005
MYMP
Eternal flame Solo only

TIP:You should be accurate on the slides.Listen to the song to get it perfectly.
[ Tab from: http://www.guitartabs.cc/tabs/m/mymp/eternal_flame_tab_ver_4.html ]
e|-------------------------------------------------------------------------|
B|--------8/10---10/12-12~~~12h13p12----------------10\5--5/7-7---10\5--5/7|
G|----7/9----------------------------12/14-14\12----------------7----------|
D|-------------------------------------------------------------------------|
A|-------------------------------------------------------------------------|
E|-------------------------------------------------------------------------|


e|-------------------------------------------------------------------------|
B|-------------------------------------------------------------------------|
G|----6/7p5--4-4/5-----6/7p5--4-4/5----------------------------------------|
D|-----------------5----------------5--------------------------------------|
A|-------------------------------------------------------------------------|
E|-------------------------------------------------------------------------|
Comments