Mymp - Eternal Flame Chords & Tabs

 

Eternal Flame Chords & Tabs

Mymp Chords & Tabs

Version: 3 Type: Tab 0 ratings
1 star 2 stars 3 stars 4 stars 5 stars
comments

Eternal Flame Tab

Eternal Flame - MYMP

tabbed by: jay casanova

cooties

TUNING: standard

SOLO

e----------------------------------------------------------------------|
b-------8h10-10/12-12--12h13p12-8/10-10\8-8--10---------------10-------|
g---7h9-----------------------------------------9/11-11-\9-7-----9/11--|
d----------------------------------------------------------------------|
[ Tab from: http://www.guitartabs.cc/tabs/m/mymp/eternal_flame_tab_ver_3.html ]
e-----------------------------|
b-----------------------------|
g---7\5-4h5-----7\5-4-4h5-----|
d-----------5-------------5---|


-end-

note: ung chords naman sa mga versions dito tama. nga lang comment ko sa may
bandang chorus, c-b/g-am-g ung may "...you come and ease the pain..." waha
pakinggan nyo na lang. kung wala pa kayong mp3, malamang i-download nyo na.

.i.am.the.unforgiven.
Comments