Mymp - Especially For You Chords & Tabs

 

Especially For You Chords & Tabs

Mymp Chords & Tabs

Version: 6 Type: Tab 0 ratings
1 star 2 stars 3 stars 4 stars 5 stars
comments

Especially For You Tab

Especially For You - MYMP

tabbed by: jay casanova
cooties
standard tuning

Note: hindi po ito 100% tama, labo kasi

solo part

[ Tab from: http://www.guitartabs.cc/tabs/m/mymp/especially_for_you_tab_ver_6.html ]
e----------------------------------------------------------|
b-------------------------------------------5-7-8/10-8-----|
g----7-9-9/10-9-7-7h9-7\5-------5-7-7-7/8-8----------------|
d---7-------------------------7----------------------------|
a---------------------------5------------------------------|
e----------------------------------------------------------|

e----------------------------------------------------------|
b----------------------------------------------------------|
g----------------------------------------------------------|
d----------------------------------------------------------|
a---10p8-10p8-10-8-10-10/12-10-8-7-------------------------|
e----------------------------------------------------------|

-end-
-len-

hi sa mga kuto at lupa.mabuhay kayo at mamatay ka na. hehe.

.i.am.the.unforgiven.
Comments