Mymp - Especially For You Chords & Tabs

 

Especially For You Chords & Tabs

Mymp Chords & Tabs

Version: 4 Type: Tab 0 ratings
1 star 2 stars 3 stars 4 stars 5 stars
comments

Especially For You Tab

   
Song         : Especially For You
Artist       : M.Y.M.P.
Album        : Versions
Lenght       : 3:45
Type         : Acoustic Tab and Chords
Tuning       : Standard EADGBe
Ear Tabber   : Daniel L. Astillero nadaniel_12@yahoo.com
Tabbed       : March 18, 2005
----------------------------------------------------------------------------------------

Intro + Verse:

    T           T
e|--.-----------.--------------------:
B|--.-------3q--.---3~~--------------:
G|--.-------3q--.---3~~--------------:
D|--.-----------.--------------------:
A|--.-------3q--.---3~~---------3----:
E|--.---1PM-----.--------------------:
                    Especially  for..

Verse I:
    FM7........   Bb/D         Gm.....        C9..........  F...... Em.......      Dm7..
e:---------0-------------------3+-3-----------3-------3--------1------------0--------5-5---->
B:----1q-1--1-----3+-----------3+--3----------3+-------3-------1------------0--------6-6---->
G:----2q-2---2q---3+-----------3+---3q--------0+--------0q-----2------------0--------------->
D:-------3--------3+-----------5+-------------2+-------------------------------------------->
A:---3------------5+-----------5+-------------3+-------------3--------2--------(0)-5-------->
E:--1--------------------------3+---------------------------1-----1--0---------------------->
  ..you           let u knw..  thru    ol the times..apart..you..    you wr n  my  hrt

    Gm.......   C.....                 EbM7/C
e<----------3--------------------------------|
B<----------3-----2--2~~~~~~~~~~~~~~~--3q----|
G<----------3-----0--0~~~~~~~~~~~~~~---3q----|
D<-------------------2~~~~~~~~~~~~-----------|
A<--------5-----3----3~~~~~~~~~~~~~~---3q----|
E<--(0)-3------------------------------------|
     my luv nvr chnged   i stil fil d sme

  -just repeat the sequence, BUT THE LAST CHORD (C) SHOULD BE CHANGED TO Bb-

Refrain I: Strum more on basses of the chord..

F
No more dreaming about tommorow
Am
Forget the loneliness and the sorrow
Bb                                C---->
I got to say, it's all because of you

Chorus: Strum and Pluck

<---Bb               Am+       Bb+
And now we're back together, together
        Am+                  Gm+
I wanna show you my heart is oh so true
            Am+              Bb+          F+
And all the love I have is especially for you

Verse II: (Repeat Verse chord)

Refrain II:
F
I've waited long enough to find you
Am
I wanna put all the hurt behind you
Bb                                            C-->
And I wanna bring out all the love inside you oh

Chorus:

<---Bb               Am+       Bb+
And now we're back together, together
        Am+                  Gm+
I wanna show you my heart is oh so true
            Am+              Bb+          F+  EbM7/C
And all the love I have is especially for you

Solo:

e|---------------------------------------------------------->
B|--3q---3-5-5/6--5-3-3h5-3\1---------------------77h9-9\8v->
G|--3q--3----------------------------7-77-7h8-7-8----------->
D|--------------------------------4-7----------------------->
A|--3q---------------------------5-------------------------->
E|---------------------------------------------------------->
[ Tab from: http://www.guitartabs.cc/tabs/m/mymp/especially_for_you_tab_ver_4.html ]
e<--------------------------------|
B<--------------------------------|
G<--5p3-5-33h5-33/5--5h7-5-3-3\2--|
D<--------------------------------|
A<--------------------------------|
E<--------------------------------|

   -and then continue with verse chords starting at F, Em, Dm7 so on...


Refrain I:

F
No more dreaming about tommorow
Am
Forget the loneliness and the sorrow
Bb                                C---->
I got to say, it's all because of you

Chorus:

<---Bb               Am+       Bb+
And now we're back together, together
        Am+                  Gm+
I wanna show you my heart is oh so true
            Am+              Bb+          F+
And all the love I have is especially for you
Am+       Bb+
Together, together
        Am+                  Gm+
I wanna show you my heart is oh so true
            Am+              Bb+          F+   EbM7/C
And all the love I have is especially for you


Outro: (some kinda weird! lol :)

e|--13p12-10-----------------------------------|
B|-----------13-12-10--------------------------|
G|--------------------12-10-9~~/10/12--10-\7---|
D|---------------------------------------------|
A|---------------------------------------------|
E|---------------------------------------------|

Key-
Effects:

T   - Tap (Strings)
PM  - Palm Muting
q   - Quick Release
v   - Vibrate
b   - Bend Pitch
+   - Pluck as the song's idea
(n) - Do or Don't
/   - Slide Up
\   - Slide Down
h   - Hammer-on
p   - Pull-off
~   - Let the note ringing

Bar:
-|  - Whole bar
.   - Tap
-:  - Relative
->  - Unfinished Bar

-----------------------------------------------------------------------------------
Oh ayan! tapos na! sana magustuhan nyo huh!!
Oh nadine, tapos ko na gawin yung song na gusto mo...
para sa'you po 2!! luv u..
Hi INTERFUSION, Christian R, JJ, Bless, Christian P, Obet & Irish love u guys!!!!
friendster po.. nadaniel_12@yahoo.com
-----------------------------------------------------------------------------------

Especially For You

especially for you
i wanna let you know what i was going through
all the times we were apart i thought of you
you were in my heart, my love never changed
i still feel the same

especially for you
i wanna tell you i was feeling that way too
and if dreams wherein to know
i wouldn't have long to you
to be where you are
no matter how far
and now that i'm next to you

no more dreaming about tommorow
forget the loneliness and the sorrow
i got to say, it's all because of you

and now we're back together, together
i wanna show you my heart is oh so true
and all the love i have is especially for you

especially for you
i wanna tell you, you mean all the world to me
how i'm certain that our love was meant to be
you changed my life, ooh you showed me the way
and now that im next to you

i've waited long enough to find you
i wanna put all the hurt behind you
and i wanna bring out all the love inside you oh

and now we're back together, together
i wanna show you my heart is oh so true
and all the love i have is especially for you

you were in my heart, my love never changed
and now that i'm next to you

no more dreaming about tommorow
forget the loneliness and the sorrow
i've got to say, it's all because of you

and now we're back together, together
i wanna show you my heart is oh so true
and all the love i have is especially for you
Comments