Mymp - Baby Now That Ive Found You Chords & Tabs

 

Baby Now That Ive Found You Chords & Tabs

Mymp Chords & Tabs

Version: 1 Type: Tab

Baby Now That Ive Found You Tab

Title       : Baby now that I've Found you
Artist      : MYMP
Album       : Live performance(www.mymp.tk)

Ear tabber  : Walter Michael De la Cruz 
E-mail add 1: Walterfdelacruz@yahoo.com
E-mail add 2: Michaelfdelacruz@yahoo.com 
Contact no  : 09224012464
School      : Saint Louis University, Baguio city
Time Elapsed: 7:23 PM - 7:35 PM
Date	    : November 7, 2005

This song goes to Karla Pandacan...
"BAby, Now That Ive found you,I wont let you go"

Kung gusto nyo mapakinggan ito Visit u ung website na www.mymp.tk

Intro:   
          
e|--------0-------|--------0------|--------0-------|-------0---------|
B|------3-----3---|------3----3---|------3-----3---|-----3------3----|
G|----2--------2--|----0-------0--|----0--------0--|---0----------0--|
D|--0-------------|---------------|----------------|-----------------|
A|----------------|--3------------|--2-------------|-1-------1-------|
E|----------------|---------------|----------------|-----------------|

                    
e|--------0-------|--------0---0---|-----------------|----0---------|
B|------3-----3---|------3---3-3---|--------3--------|--3---3-------|
G|----2--------2--|------------0---|------0----0-0---|--------------|
D|--0-------------|----2-----------|----0------0-0---|--------------|
A|----------------|----------------|-----------2-2---|--0-----------|
E|----------------|--0-------------|--3--------3-3---|--------------|
  
            

Chorus:
          
e|--------0-------|----------------0-------|
B|------3-----3---|-----------3--------3---|
G|----2--------2--|------0--------------0--|
D|--0-------------|------------------------|
A|----------------|--3---------------------|
E|----------------|------------------------|
    B--a--b---y     now that ive found u
           

e|--------------0-------|
B|------------3-----3---|
G|----------0--------0--|
D|----------------------|
A|--------2-------------|
E|----------------------|
  I won't let you   go   I built 

e|------------0---------|
B|----------3------3----|
G|--------0----------0--|
D|----------------------|
A|------1-------1-------|
E|----------------------|  
  my world around you


e|--------0-------|
B|------3-----3---|
G|----2--------2--|
D|--0-------------|
A|----------------|
E|----------------|
   I need you so, baby 


e|--------0---0---|
B|------3---3-3---|
G|------------0---|
D|----2-----------|
A|----------------|
E|--0-------------|
   even though   
   
e|-----------------------|----0---------|
B|--------------3--------|--3---3-------|
G|------------0----0-0---|--------------|
D|----------0------0-0---|--------------|
A|-----------------2-2---|--0-----------|
E|-------3---------3-3---|--------------|
 U don't need me   n----o-----w

   
e|--------0-------|----------------0-------|
B|------3-----3---|-----------3--------3---|
G|----2--------2--|------0--------------0--|
D|--0-------------|------------------------|
A|----------------|--3---------------------|
E|----------------|------------------------|
    B--a--b---y     now that ive found u
           
e|--------------0-------|
B|------------3-----3---|
G|----------0--------0--|
D|----------------------|
A|--------2-------------|
E|----------------------|
  I won't let you   go   I built 

e|------------0---------|
B|----------3------3----|
G|--------0----------0--|
D|----------------------|
A|------1-------1-------|
E|----------------------|  
  my world around you


e|--------0-------|
B|------3-----3---|
G|----2--------2--|
D|--0-------------|
A|----------------|
E|----------------|
   I need you so, baby 


e|--------0---0---|
B|------3---3-3---|
G|------------0---|
D|----2-----------|
A|----------------|
E|--0-------------|
   even though   
   
e|-----------------------|----0---------|
B|--------------3--------|--3---3-------|
G|------------0----0-0---|--------------|
D|----------0------0-0---|--------------|
A|-----------------2-2---|--0-----------|
E|-------3---------3-3---|--------------|
 U don't need me  You don't need me 
      

e|------------0-------|---------------------------|
B|----------3-----3---|-----------3---------------|
G|--------2-----------|----------0----------------|
D|------0-------0-----|---------0-----------------|
A|--------------------|--0-2-3--------------------|
E|--------------------|-------------3-5-----------|
  no more...


Verse:

e|--------0-------|
B|------3-----3---|
G|----2--------2--|
D|--0-------------|
A|----------------|
E|----------------|
       Baby, baby, at

e|--------0---0---|
B|------3---3-3---|
G|------------0---|
D|----2-----------|
A|----------------|
E|--0-------------|
    first we met

e|-----------------------|-------------0---|
B|--------------3--------|---------3-----3-|
G|------------0----0-0---|------0----0-----|
D|----------0------0-0---|----2------------|
A|-----------------2-2---|--0--------------|
E|-------3---------3-3---|-----------------|
    I knew in this heart of mine...

e|--------0-------|
B|------3-----3---|
G|----2--------2--|
D|--0-------------|
A|----------------|
E|----------------|
  That u were someone 

e|--------0---0---|
B|------3---3-3---|
G|------------0---|
D|----2-----------|
A|----------------|
E|--0-------------|
I couldn't forget


e|-----------------------|------------------|
B|--------------3--------|---------3---3----|
G|------------0----0-0---|------0----0-0----|
D|----------0------0-0---|----2--------2----|
A|-----------------2-2---|--0----------0----|
E|-------3---------3-3---|------------------|
I said right,and abide my   time



e|------------2-------|---------------|------------|
B|-------2------2-----|-------2-------|------------|
G|-----4----------4---|----------22---|------------|
D|---4----------------|-----4----44---|------------|
A|-2-------2----------|---4------44---|------------|
E|--------------------|-2--------22---|------------|
 Spent my life looking  for that somebody

e|------------------------|
B|-----2----------2-------|
G|-----4----------4-------|
D|---4-4--------4-4-------|
A|--2---------------------|
E|-------------2----------|
 to make me feel like 

e|------------2-------|
B|-------2------2-----|
G|-----4----------4---|
D|---4----------------|
A|-2-------2----------|
E|--------------------|
   n------e-------w


e|---------0--------|----------------------|
B|-------0---0------|---------3------------|
G|-----2-------2----|----------------------|
D|---2-----------2--|------2----2----------|
A|-0----------------|----2------2----------|
E|------------------|--0--------0----------|
 Now u tell me that u want to leave me

e|-----------------|-----0-----------------------|
B|--------2--------|---3---3---------------------|
G|------0---00-----|-----------------------------|
D|----0-----00-----|-----------------------------|
A|----------22-----|---0-------------------------|
E|--3-------33-----|-----------------------------|
 But darling, I just  can't let you


interlude:
          
e|--------0-------|--------0--------|--------0-------|-------0---------|
B|------3-----3---|------3------3---|------3-----3---|-----3------3----|
G|----2--------2--|----0---------0--|----0--------0--|---0----------0--|
D|--0-------0-----|-----------------|----------------|-----------------|
A|----------------|--3-------3------|--2-------2-----|-1-------1-------|
E|----------------|-----------------|----------------|-----------------|

                    
e|--------0-------|--------0---0---|-----------------|----0---------|
B|------3-----3---|------3---3-3---|--------3--------|--3---3-------|
G|----2--------2--|------------0---|------0----0-0---|--------------|
D|--0-------0-----|----2-----------|----0------0-0---|--------------|
A|----------------|----------------|-----------2-2---|--0-----------|
E|----------------|--0-------------|--3--------3-3---|--------------|
  

Chorus:

                  
e|--------0-------|----------------0-------|
B|------3-----3---|-----------3--------3---|
G|----2--------2--|------0--------------0--|
D|--0-------------|------------------------|
A|----------------|--3---------------------|
E|----------------|------------------------|
    B--a--b---y     now that ive found u
           

e|--------------0-------|
B|------------3-----3---|
G|----------0--------0--|
D|----------------------|
A|--------2-------------|
E|----------------------|
  I won't let you   go   I built 

e|------------0---------|
B|----------3------3----|
G|--------0----------0--|
D|----------------------|
A|------1-------1-------|
E|----------------------|  
  my world around you


e|--------0-------|
B|------3-----3---|
G|----2--------2--|
D|--0-------------|
A|----------------|
E|----------------|
   I need you so, baby 

[ Tab from: http://www.guitartabs.cc/tabs/m/mymp/baby_now_that_ive_found_you_tab.html ]
e|--------0---0---|
B|------3---3-3---|
G|------------0---|
D|----2-----------|
A|----------------|
E|--0-------------|
   even though   
   
e|-----------------------|----0---------|
B|--------------3--------|--3---3-------|
G|------------0----0-0---|--------------|
D|----------0------0-0---|--------------|
A|-----------------2-2---|--0-----------|
E|-------3---------3-3---|--------------|
 U don't need me   n----o-----w

          
e|--------0-------|----------------0-------|
B|------3-----3---|-----------3--------3---|
G|----2--------2--|------0--------------0--|
D|--0-------------|------------------------|
A|----------------|--3---------------------|
E|----------------|------------------------|
    B--a--b---y     now that ive found u
           

e|--------------0-------|
B|------------3-----3---|
G|----------0--------0--|
D|----------------------|
A|--------2-------------|
E|----------------------|
  I won't let you   go   I built 

e|------------0---------|
B|----------3------3----|
G|--------0----------0--|
D|----------------------|
A|------1-------1-------|
E|----------------------|  
  my world around you


e|--------0-------|
B|------3-----3---|
G|----2--------2--|
D|--0-------------|
A|----------------|
E|----------------|
   I need you so, baby 


e|--------0---0---|
B|------3---3-3---|
G|------------0---|
D|----2-----------|
A|----------------|
E|--0-------------|
   even though   
   
e|-----------------------|----0---------|
B|--------------3--------|--3---3-------|
G|------------0----0-0---|--------------|
D|----------0------0-0---|--------------|
A|-----------------2-2---|--0-----------|
E|-------3---------3-3---|--------------|
 U don't need me  You don't need me 
      
e|------------0-------|---------------------------|
B|----------3-----3---|-----------3---------------|
G|--------2-----------|----------0----------------|
D|------0-------0-----|---------0-----------------|
A|--------------------|--0-2-3--------------------|
E|--------------------|-------------3-5-----------|
  no more...
  

Verse:

e|--------0-------|
B|------3-----3---|
G|----2--------2--|
D|--0-------------|
A|----------------|
E|----------------|
       Baby, baby, at

e|--------0---0---|
B|------3---3-3---|
G|------------0---|
D|----2-----------|
A|----------------|
E|--0-------------|
    first we met

e|-----------------------|-------------0---|
B|--------------3--------|---------3-----3-|
G|------------0----0-0---|------0----0-----|
D|----------0------0-0---|----2------------|
A|-----------------2-2---|--0--------------|
E|-------3---------3-3---|-----------------|
    I knew in this heart of mine...

e|--------0-------|
B|------3-----3---|
G|----2--------2--|
D|--0-------------|
A|----------------|
E|----------------|
  That u were someone 

e|--------0---0---|
B|------3---3-3---|
G|------------0---|
D|----2-----------|
A|----------------|
E|--0-------------|
I couldn't forget


e|-----------------------|------------------|
B|--------------3--------|---------3---3----|
G|------------0----0-0---|------0----0-0----|
D|----------0------0-0---|----2--------2----|
A|-----------------2-2---|--0----------0----|
E|-------3---------3-3---|------------------|
I said right,and abide my   time



e|------------2-------|---------------|------------|
B|-------2------2-----|-------2-------|------------|
G|-----4----------4---|----------22---|------------|
D|---4----------------|-----4----44---|------------|
A|-2-------2----------|---4------44---|------------|
E|--------------------|-2--------22---|------------|
 Spent my life looking  for that somebody

e|------------------------|
B|-----2----------2-------|
G|-----4----------4-------|
D|---4-4--------4-4-------|
A|--2---------------------|
E|-------------2----------|
 to make me feel like 

e|------------2-------|
B|-------2------2-----|
G|-----4----------4---|
D|---4----------------|
A|-2-------2----------|
E|--------------------|
   n------e-------w


e|---------0--------|----------------------|
B|-------0---0------|---------3------------|
G|-----2-------2----|----------------------|
D|---2-----------2--|------2----2----------|
A|-0----------------|----2------2----------|
E|------------------|--0--------0----------|
 Now u tell me that u want to leave me

e|-----------------|-----0-----------------------|
B|--------2--------|---3---3---------------------|
G|------0---00-----|-----------------------------|
D|----0-----00-----|-----------------------------|
A|----------22-----|---0-------------------------|
E|--3-------33-----|-----------------------------|
 But darling, I just  can't let you


          
e|--------0-------|--------0--------|--------0-------|-------0---------|
B|------3-----3---|------3------3---|------3-----3---|-----3------3----|
G|----2--------2--|----0---------0--|----0--------0--|---0----------0--|
D|--0-------0-----|-----------------|----------------|-----------------|
A|----------------|--3-------3------|--2-------2-----|-1-------1-------|
E|----------------|-----------------|----------------|-----------------|
  you.............
 

e|--------0-------|--------0--------|--------0-------|-------0---------|
B|------3-----3---|------3------3---|------3-----3---|-----3------3----|
G|----2--------2--|----0---------0--|----0--------0--|---0----------0--|
D|--0-------0-----|-----------------|----------------|-----------------|
A|----------------|--3-------3------|--2-------2-----|-1-------1-------|
E|----------------|-----------------|----------------|-----------------|
                   now that ive found you, i'll build my world around u
                   
e|--------0-------|
B|------3-----3---|
G|----2--------2--|
D|--0-------------|
A|----------------|
E|----------------|
   I need you so, baby 


e|--------0---0---|
B|------3---3-3---|
G|------------0---|
D|----2-----------|
A|----------------|
E|--0-------------|
   even though   
   
e|-----------------------|----0---------|
B|--------------3--------|--3---3-------|
G|------------0----0-0---|--------------|
D|----------0------0-0---|--------------|
A|-----------------2-2---|--0-----------|
E|-------3---------3-3---|--------------|
 U don't need me   n----o-----w

          
e|--------0-------|----------------0-------|
B|------3-----3---|-----------3--------3---|
G|----2--------2--|------0--------------0--|
D|--0-------------|------------------------|
A|----------------|--3---------------------|
E|----------------|------------------------|
    B--a--b---y     now that ive found u
           

e|--------------0-------|
B|------------3-----3---|
G|----------0--------0--|
D|----------------------|
A|--------2-------------|
E|----------------------|
  I won't let you   go   I built 

e|------------0---------|
B|----------3------3----|
G|--------0----------0--|
D|----------------------|
A|------1-------1-------|
E|----------------------|  
  my world around you


e|--------0-------|
B|------3-----3---|
G|----2--------2--|
D|--0-------------|
A|----------------|
E|----------------|
   I need you so, baby 


e|--------0---0---|
B|------3---3-3---|
G|------------0---|
D|----2-----------|
A|----------------|
E|--0-------------|
   even though   
   
e|-----------------------|----0---------|
B|--------------3--------|--3---3-------|
G|------------0----0-0---|--------------|
D|----------0------0-0---|--------------|
A|-----------------2-2---|--0-----------|
E|-------3---------3-3---|--------------|
 U don't need me  You don't need me 
      

e|------------0-------|---------------------------|
B|----------3-----3---|-----------3---------------|
G|--------2-----------|----------0----------------|
D|------0-------0-----|---------0-----------------|
A|--------------------|--0-2-3--------------------|
E|--------------------|-------------3-5-----------|
  no more...
  
e|------------0-------|---------------------------|
B|----------3-----3---|-----------3---------------|
G|--------2-----------|----------0----------------|
D|------0-------0-----|---------0-----------------|
A|--------------------|--0-2-3--------------------|
E|--------------------|-------------3-5-----------|
                            

  
e|------------0-------|---------------------------|
B|----------3-----3---|-----------3---------------|
G|--------2-----------|----------0----------------|
D|------0-------0-----|---------0-----------------|
A|--------------------|--0-2-3--------------------|
E|--------------------|-------------3-5-----------|
				ooohhhh
  
e|------------0-------|--------------------0-------0-----0---|
B|----------3-----3---|-----------3--------3--------3------3-|
G|--------2-----------|----------0---------2-----2-----2-----|
D|------0-------0-----|---------0----------0----0-----0------|
A|--------------------|--0-2-3-------------------------------|
E|--------------------|-------------3-5----------------------|
                            ooohhh        yeah





For comments send me a message in Friendster. 

E-mail add 1: Walterfdelacruz@yahoo.com
E-mail add 2: Michaelfdelacruz@yahoo.com 

And u Can also add me as your friend Or send me a testimonial.hehehe
God bless!