Mylo - Drop The Pressure Chords & Tabs

 

Drop The Pressure Chords & Tabs

Mylo Chords & Tabs

Version: 1 Type: Bass Tab 0 ratings
1 star 2 stars 3 stars 4 stars 5 stars
comments

Drop The Pressure Bass Tab

   
-------------------------------------------------------------------------------
			     Drop The Pressure - Mylo
-------------------------------------------------------------------------------

Tabbed By : imessyou
e-mail: theblochead@hotmail.co.uk

Choons man. Mylo is a G

Tuning: Standard

This tune is basically a dance tune that has two main bass lines all the way through. 

Riff 1
This riff comes in at 0:15.
G|-------(9)-|
D|-----------|
A|-5-5--7-7--|
E|-----------|
[ Tab from: http://www.guitartabs.cc/tabs/m/mylo/drop_the_pressure_btab.html ]
This riff also does funky rhythms like this
G|-------(9)|------------(9)|
D|----------|---------------|
A|-5-5--7-7-|-5-555-5---7-7-|
E|----------|---------------|

Riff 2
You'll know when this riff kicks on cos it makes you nod your head.
It kicks in at 0:45
G|--------(9)|----------(9)|
D|-----------|-------------|
A|-----------|5-555-5--7-7-|
E|-7-7---8-8-|-------------|

That's basically it, work out the order fer yerselves, it's not hard, its just a raw tune to jam to


| /  slide up
| \  slide down
| h  hammer-on
| p  pull-off
| ~  vibrato
| +  harmonic
| x  Mute note
===============================================================================
Comments