Myles Alannah - Black Velvet Chords & Tabs

 

Black Velvet Chords & Tabs

Myles Alannah Chords & Tabs

Version: 1 Type: Tab 1 rating
1 star 2 stars 3 stars 4 stars 5 stars
comments

Black Velvet Tab

   
				BLACK VELVET by allanah myles



tabbed by 
ARTHUR ALMERADER
koblenz, germany


improvements?? mail to:   hafitm@aol.com


pm...  palm muted
>  upslide
<  downslide
b  bend
fb  FULL bend (a whole step bended)


		           some beats later
e--------------------------------------------------------------
h-------4---46---6-----------------------6----------------------------
d---------------->6-4-----------------------------------------
a---------------------------------------------------------------
e---------------------------------------------------------------


There are some more fill ins in the song. You have to improvise with this lick above, 
to figure them out. There are too many of em to note em all.



[ Tab from: http://www.guitartabs.cc/tabs/m/myles_alannah/black_velvet_tab.html ]
02:40, there is a cool solo:


       b		              b		play this 2 times 
e--------------------------------------------------------
h------9---7--------------------------7------------------
g------------8-------8--6--8---x-x-x---------------------
d--------------------------------------------------------
a--------------------------------------------------------
e--------------------------------------------------------



			  PM......	      fb      fb     fb	 	b			fb
e----------------------------------------------------------------------------------------------------
h-------------------------------------------------16-----16--------------------------------16--20----
g-----8-6----6---------------3----------------18-----18------18--------18-16-18-----16--18-----------
d--------->8---8
Comments