Mygrain - Human Wasteland Chords & Tabs

 

Human Wasteland Chords & Tabs

Mygrain Chords & Tabs

Version: 1 Type: Tab

Human Wasteland Tab

   
Thanks to syndemon
(http://www.youtube.com/watch?v=BkcmGFByRes)

Credit to vrabule (http://www.youtube.com/user/vrabule) for making the tabs.
Revised by syndemon

myGrain - Human Wasteland
Tuning = drop C (C,G,C,F,A,d)

NH = Natural Harmonic

Intro x4
                                                                   
D |-------------------------------------------------------------------|
A |-------------------------------------------------------------------|
F |-------------------------------------------------------------------|
C |-------------------------------------------------------------------| 
G |-1--0---------------------------1--0-------------------------------|
C |-1--0---0-0-0---0-0-0-0-0-0-0---1--0---0-0-0---0-0-0-0-0-0-0-------|

                                                      N.H.    N.H.
D |-------------------------------------------------------------------|
A |-------------------------------------------------------------------|
F |-------------------------------------------------------------------|
C |------------------------------------------------------------5------|
G |-1--0---------------------------1--0----------------5--------------|
C |-1--0---0-0-0---0-0-0-0-0-0-0---1--0---0-0-0---0-0------0-0--------|

Riff 1 x2

D |---------------------------------------------|
A |---------------------------------------------|
F |---------------------------------------------|
C |---------------------------------------------|
G |-8p5-5---5h6~-5--------8p5-5---5h6~-5--------|
C |----0--0---------0-0-0----0--0---------0-0-0-|

Repeat Intro Twice

Repeat Riff 1 x4, Guitar Two Plays this after second time:

D |----------------------------------------------|
A |----------------------------------------------|
F |----------------------------------------------|
C |--10p7-7---7h8~-7-------10p7-7---7h8~-7-------| x2
G |----------------------------------------------|
C |------0---0-------0-0-0-----0--0--------0-0-0-|

Verse x4

D |-------------------------------------------------------------|
A |-------------------------------------------------------------|
F |-------------------------------------------------------------|
C |------------------------------------------------------7h8h10-|
G |-----8-7h8-----8-7h8---------------8-7h8-----8-7h8h10--------|
C |-0-0--------0-0--------0-0-0-0-0-0--------0-0----------------|


                                           After first time from here on out

D |-----------------------------------------------|-------------|
A |-----------------------------------------------|-------------|
F |-----------------------------------------------|-------------|
C |---------------------------------8----------3--|-8-8-----3-3-|
G |-------8-7h8------8-7h8----------8----------3--|-8-8-----3-3-|
C |---0-0--------0-0--------0-0-0-0-8----------3--|-8-8-----3-3-|

Pre-Chorus x2

D |------------------------------------------------------|
A |------------------------------------------------------|   
F |-----------------------------------------------------5|
C |--5h7-7~----------5-7-8-7-5--5h7-7~----------5-7-8-5--| 
G |------------------------------------------------------|    
C |----------0-0-0-0-------------------0-0-0-0-----------|  

                                           End of second time
[ Tab from: http://www.guitartabs.cc/tabs/m/mygrain/human_wasteland_tab.html ]
D |--------------------------------------------|-----|
A |--------------------------------------------|-----|                      
F |--------------------------------------------|-----|
C |--5h7-7~----------5-7-8-7-5--7-5------------|--0--| 
G |----------------------------------8--7-8-7--|--0--|                     
C |----------0-0-0-0---------------------------|--0--|   


Repeat Verse Twice

Repeat Pre-Chorus Twice

D |-------------------------------------------------------|
A |-------------------------------------------------------|
F |-------------------------------------------------------|
C |-------------------------------------------------------|
G |--0-0------x-10--10------x-8--8------x-10--10------0-0-|
C |--0-0------x-10--10------x-8--8------x-10--10------0-0-|

D |---------------------------------------------------------------------|
A |---------------------------------------------------------------------|
F |---------------------------------------------------------------------|
C |---------------------------------------------------------------------|
G |-x-10--10------x-8--8------10-10-10-10---10-10-10-10---10-10-10-10---|
C |-x-10--10------x-8--8------10-10-10-10---10-10-10-10---10-10-10-10---|


Chorus x4
                                                       After last time
   Listen to the song for strum pattern                
D |--------------------------------------------------------|-----|   
A |--------------------------------------------------------|-----| 
F |--------------------------------------------------------|-----|  
C |-10-----9------12---------------------------------------|--0--|
G |-8------7------10--------------8-7-x-x-x-x-8-7-8/10-----|--0--|
C |-------------------------------8-7-x-x-x-x-8-7-8/10-----|--0--| 

Repeat Verse Twice

Repeat Pre-Chorus Twice

D |------------------------|
A |------------------------|   
F |------------------------|
C |--5~---7~---10~---12~---|
G |------------------------|     
C |------------------------|

Repeat Chorus x4

D |-------------------------|    
A |-------------------------|  
F |-------------------------|
C |-7-8-7-5-7-5-3-5-3-2-3-2-|   
G |-------------------------|  
C |-------------------------|


D |---------------------|
A |---------------------|
F |---------------------|
C |---------------------|x8
G |---------------------|
C |-3p0-0-0h1-0--0-0-0--|

Repeat Intro Twice, with slight variation at end
                                                                              
D |-------------------------------------------------------------|
A |-------------------------------------------------------------|
F |-------------------------------------------------------------|
C |-------------------------------------------------------------| 
G |-1--0---------------------------1--0-------------------------|
C |-1--0---0-0-0---0-0-0-0-0-0-0---1--0---0-0-0---0-0-0-0-0-0-0-|

                                     Let ring to end                
D |------------------------------------------------------------------|
A |------------------------------------------------------------------|
F |------------------------------------------------------------------|
C |------------------------------------------------------------------| 
G |-1--0---------------------------1--0------------------------------|
C |-1--0---0-0-0---0-0-0-0-0-0-0---1--0------------------------------|