My Vitriol - Wait A Minute Chords & Tabs

 

Wait A Minute Chords & Tabs

My Vitriol Chords & Tabs

Version: 1 Type: Chords 0 ratings
1 star 2 stars 3 stars 4 stars 5 stars
comments

Wait A Minute Chords

   
-------------------------------------------------------------------------------------------------
My Vitriol - Wait A Minute
sussed by Fibreman
-------------------------------------------------------------------------------------------------

This is a cover of a song originally by The Wipers and was a b-side on one of the singles, as 
well as on `Between The Lines`, an bonus cd on the re-released version of their debut album, 
`Finelines`.

-------------------------------------------------------------------------------------------------
standard tuning 
-------------------------------------------------------------------------------------------------

Chords

   C#m   C#sus2   E   B5   F#m   F#  Asus2  G#m
e---4------4------0----x----2-----2----0-----4-
B---5------4------0----x----2-----2----0-----4-
G---6------6------1----4----2-----3----2-----4-
D---6------6------2----4----4-----4----2-----6-
A---4------4------2----2----4-----4----0-----6-
E---x------x------0----0----2-----2----x-----4-
[ Tab from: http://www.guitartabs.cc/tabs/m/my_vitriol/wait_a_minute_crd.html ]
-------------------------------------------------------------------------------------------------

Intro/Break

C#m, C#sus2, E x4

-------------------------------------------------------------------------------------------------

Verses

C#m, C#sus2, B5, E
C#m, C#sus2, B5, E, G#m

-------------------------------------------------------------------------------------------------

Bridge

C#m, F#, B5, E, F#m

-------------------------------------------------------------------------------------------------

Chorus

Asus2, B5, G#m, Asus2, G#m, F#m

-------------------------------------------------------------------------------------------------

There are some lead parts if somebody wants a go at them.  I think the Vitriol`s mysterious 
Whammy pedal makes a reappearance though.

-------------------------------------------------------------------------------------------------
Comments