My Vitriol - Vapour Trails Chords & Tabs

 

Vapour Trails Chords & Tabs

My Vitriol Chords & Tabs

Version: 3 Type: Tab 0 ratings
1 star 2 stars 3 stars 4 stars 5 stars
comments

Vapour Trails Tab

   
#----------------------------------PLEASE NOTE---------------------------------#
#This file is the author's own work and represents their interpretation of the #
#song. You may only use this file for private study, scholarship, or research. #
#------------------------------------------------------------------------------##

                                  VAPOUR TRAILS
                            As recorded by My Vitriol
                         (Released as a Single in 2001)

Words by Som WardnerMusic by My Vitriol
Transcribed by John Henson - theredqueen.net

Alright, you may need to slide all these down one...My guitar was tuned up i think...

        Cmaj7/E                G#5                  F5
      x 3 5 5 x x          4 6 6 x x x          1 3 3 x x x

Intro :

|-------------------------------------------------------------|
|-------------------------------------------------------------|
|-5-5-5-5---------5-5-5-5---------5-5-5-5---------5-5-5-5-----|
|-5-5-5-5-6-6-6-6-5-5-5-5-6-6-6-6-5-5-5-5-6-6-6-6-5-5-5-5-6---|
|-3-3-3-3-6-6-6-6-3-3-3-3-6-6-6-6-3-3-3-3-6-6-6-6-3-3-3-3-6---|
|---------4-4-4-4---------4-4-4-4---------4-4-4-4---------4---|

Intro (2) :
[ Tab from: http://www.guitartabs.cc/tabs/m/my_vitriol/vapour_trails_tab_ver_3.html ]
<>
|-----------------------------------------------------------------------------|
|-----------------------------------------------------------------------------|
|-5-5-5-5----------5--5-5-5---------------------------------------------------|
|-5-5-5-5-6--6-6-6-5--5-5-5-6--6-6-6-3-3-3-3-3-3-3-3-6--6--6--6--6--6--6--6---|
|-3-3-3-3-6--6-6-6-3--3-3-3-6--6-6-6-3-3-3-3-3-3-3-3-6--6--6--6--6--6--6--6---|
|---------4--4-4-4----------4--4-4-4-1-1-1-1-1-1-1-1-4--4--4--4--4--4--4--4---|

<>
  ~~~~~~~~~~~~~~~~~~~~~~~~~~~~
|------------------------------------------------------------------------------|
|-15-------11-------15-------11-------8-8-8-8-8-8-8-8--------------------------|
|-----------------------------------------------------10-10-10-10-10-10-10-10--|
|------------------------------------------------------------------------------|
|------------------------------------------------------------------------------|
|------------------------------------------------------------------------------|

Verse :

|--------------------------------------------------|
|--------------------------------------------------|
|-5-5-5-5---------5-5-5-5--------------------------|
|-5-5-5-5-6-6-6-6-5-5-5-5-6-6-6-6-3-3-3-3-3-3-3-3--|
|-3-3-3-3-6-6-6-6-3-3-3-3-6-6-6-6-3-3-3-3-3-3-3-3--|
|---------4-4-4-4---------4-4-4-4-1-1-1-1-1-1-1-1--|


Chorus :

|----------------------------------|
|----------------------------------|
|----------------------------------|
|-6-6-6-6-3-3-3-3-6-6-6-6-3-3-3-3--|
|-6-6-6-6-3-3-3-3-6-6-6-6-3-3-3-3--|
|-4-4-4-4-1-1-1-1-4-4-4-4-1-1-1-1--|
(and it's all the same)

Post-Chorus :

|----------------------------------|
|----------------------------------|
|----------------------------------|
|-6-6-6-6-6-6-6-6-3-3-3-3-3-3-3-3--|
|-6-6-6-6-6-6-6-6-3-3-3-3-3-3-3-3--|
|-4-4-4-4-4-4-4-4-1-1-1-1-1-1-1-1--| x 4
(dooo-dooo=ooooh)

Intro (2)
Verse
Chorus
Post-Chorus

Outro : Play the 'Post-Chorus' part twice, it has a second guitar with a distorted wah,
played to sound like a scream. (Or it could be a scream!)
John Henson 2001
Comments