My Vitriol - Losing Touch Chords & Tabs

 

Losing Touch Chords & Tabs

My Vitriol Chords & Tabs

Version: 2 Type: Tab 0 ratings
1 star 2 stars 3 stars 4 stars 5 stars
comments

Losing Touch Tab

my vitriol, losing touch.
 Tabbed by Sander,i_ate_your_balls@hotmail.com.
  
Band:My ViTRioL
Song:Losing touch        
Tuning:Standard
Tabbed by: $@NDER

i have no idea of how to play the intro part but just improvise with harmonicsand mutted strings
then play


e|------------------------------------------------------|
B|-1-1-1-1-------------1-1-1-1-------------3-3-1-0------|
G|-2-2-2-2-2-2-2-2-2-2-2-2-2-2-2-2-2-2-2-2-0-0-2-2---7b-|
D|-2-2-2-2-3-3-3-3-3-3-2-2-2-2-3-3-3-3-3-3-2-2-2-2------|
A|-0-0-0-0-3-3-3-3-3-3-0-0-0-0-3-3-3-3-3-3-3-3-0-0------|
E|---------1-1-1-1-1-1---------1-1-1-1-1-1--------------|

the 2nd time guitar 2 plays some harmonics on the 7th fret 1st string and 12th fret 3rd string
[ Tab from: http://www.guitartabs.cc/tabs/m/my_vitriol/losing_touch_tab_ver_2.html ]
Verse
e|-----------------------------------2-2-2-2-3-3-3-3-2-2-2-2-3-3-3-3|
B|-2-2-2-2-2-2-2-2--2-2-2-2-2-2-2-2--3-3-3-3-3-3-3-3-3-3-3-3-3-3-3-3|
G|-2-2-2-2-3-3-2-2--2-2-2-2-3-3-2-2--4-4-4-4-0-0-0-0-4-4-4-4-0-0-0-0|
D|-2-2-2-2-0-0-0-0--2-2-2-2-0-0-0-0--4-4-4-4-0-0-0-0-4-4-4-4-0-0-0-0|
A|-------------------------------------------2-2-2-2---------2-2-2-2|
E|-------------------------------------------3-3-3-3---------3-3-3-3|
Chorus
e|------------------------------------------------------|
B|------------------------------------------------------|
G|----7-------------------------------------------------|
D|-2/-7-7-7-7-7-7-7b------------------------------------|
A|-2/-5-7-7-7-7-7---------------------------------------|
E|-4----5-5-5-5-5---------------------------------------|

Interlude keep reapeting these 2 chords with upstrokes
e|-----0-0------------------------------------------------|
B|-1-1-0-0------------------------------------------------|
G|-2-2-0-0------------------------------------------------|
D|-2-2-2-2------------------------------------------------|
A|-----2-2------------------------------------------------|
E|-----0-0------------------------------------------------|

for the outro play the first part an d the 2nd \"everyting is okay\" play
e|------------------------------------------------------|
B|-13--12-8---------------------------------------------|
G|-xx--x--x---------------------------------------------|
D|-xx--x--x---------------------------------------------|
A|-10--9--5---------------------------------------------|
E|------------------------------------------------------|

that's it 
this is the best song by my vitriol and if anyone has an idea for the intromail me
i_ate_your_balls@hotmail.com  
:: Ultimate Guitar Archive :: 
http://www.ultimate-guitar.com 



Comments