My Vitriol - Cemented Shoes Chords & Tabs

 

Cemented Shoes Chords & Tabs

My Vitriol Chords & Tabs

Version: 2 Type: Tab 0 ratings
1 star 2 stars 3 stars 4 stars 5 stars
comments

Cemented Shoes Tab

   
-----------------------------------------------------------------------------
     CEMENTED SHOES - My Vitriol
-----------------------------------------------------------------------------
Tabbed by: Luke Rounda
Email: luke@notus.com

Standard Tuning E A D G B E

 intro
e|-3-x-3-3-3-3-3-3-3-------3-------3------|R|--------|
B|-4-x-4-4-4p3-3-3-3-------3-------3------|E|--------|
G|-5-x-5-5-5-5-5-5-5-0h5-5-5-0h5-5-5------|P|--------|
D|-5-----------------0h5-5---0h5-5--------|E|--------|
A|-3-----------------0h3-----0h3----------|A|--------|
E|----------------------------------------|T|--------|

  verse
e|---------------------------------------------------|
B|---------------------------------------------------|
G|---------------------------------------------------|
D|-3--3-3--3-3-3/5--5--5-5--6-6-6-6-6-6-6-6-6-6------|
A|-3--3-3--3-3-3/5--5--5-5--6-6-6-6-6-6-6-6-6-6------|
E|-1--1-1--1-1-1/3--3--3-3--4-4-4-4-4-4-4-4-4-4------|

e|---------------------------------------------------|
B|-----------8---------------------------------------|
G|-----------8---------------------------------------|
D|-5-5-5--6--8---8-8-8-8-----------------------------|
A|-5-5-5--6--6---8-8-8-8-----------------------------|
E|-3-3-3--4------6-6-6-6-----------------------------|

The bridge (at 1:29) is:

B7    (7x676x)     Csus  (x35543)     Ab    (466544)

then:

|----------------------------------------------------|
|---6-66(6)------6-----------------------------------|
|---7-77-7h8-8-8p7-----------------------------------|
|---8-88-8-6-6-6-8-----/pb11r10~~~9~~~~~-------------|
|---8-88-8-8-8-8-8-----------------------------------|
|-6-6------------------------------------------------|
                       ^ tremolo picking (32nd notes)

[ Tab from: http://www.guitartabs.cc/tabs/m/my_vitriol/cemented_shoes_tab_ver_2.html ]
 solo
e|----------15-15-15-15---15-15-15--13-13-13-13------|
B|-16-16-16-16-16-16-16---16-16-16--15-15-15-15------|
G|-17-17-17------------------------------------------|
D|---------------------------------------------------|
A|---------------------------------------------------|
E|---------------------------------------------------|

e|-13-13---13--\11-11-15-15-15-15-15-15-15-13-13-13--|
B|-15-15---15--\13-13-16-16-16-16-16-16-16-15-15-15--|
G|---------------------------------------------------|
D|---------------------------------------------------|
A|---------------------------------------------------|
E|---------------------------------------------------|

e|--13-13--\11-13--15-15-15-15-15-15-15-13-13-13-13--|
B|--15-15--\13-15--16-16-16-16-16-16-16-15-15-15-15--|
G|---------------------------------------------------|
D|---------------------------------------------------|
A|---------------------------------------------------|
E|---------------------------------------------------|

e|---------------------------------------------------|
B|---------------------------------------------------|
G|---------------------------------------------------|
D|--/pb11r10~~~9-------------------------------------|
A|---------------------------------------------------|
E|---------------------------------------------------|
    ^ tremolo picking (32nd notes)
    
Play verse riff with a lead over the top; the outro is
G5 and Ab5 with a whole bunch of heavily-effected
noise on top. Try some wild slides high up on the neck.

Then end on the Kohlstream riff:

e|---------------------------------------------------|
B|----4-----4---4-----6------------------------------|
G|---------------------------------------------------|
D|------5h6-------5h6--------------------------------|
A|--3---------3---------3----------------------------|
E|---------------------------------------------------|

| /  slide up
| \  slide down
| h  hammer-on
| p  pull-off
| ~  vibrato
| <> harmonic
| x  Mute note
=============================================================================
Comments