My Vitriol - Cemented Shoes Chords & Tabs

 

Cemented Shoes Chords & Tabs

My Vitriol Chords & Tabs

Version: 1 Type: Tab 0 ratings
1 star 2 stars 3 stars 4 stars 5 stars
comments

Cemented Shoes Tab

   
My Vitriol Cemented shoes.
 Tabbed by Mark Hobson, Hobbo@crowfans.net.
  
OK this is one of the best songs Off finelines, and it's pretty easy to play

Riff 1 (Main)
E|-3-3-3-3-3-3-3---3-3-3-3-3-3-3----3-3-3-3-3-3-3-3-3-3-3-3-3-3-|
B|-4-4-5-4-4-4-4---3-3-3-3-3-3-3----4-4-4-4-4-4-4-4-4-4-4-4-4-4-|
G|-5-5-5-5-5-5-5---5-5-5-5-5-5-5----5-5-5-5-5-5-5-5-5-5-5-5-5-5-|
D|-5-5-5-5-5-5-5---5-5-5-5-5-5-5----6-6-6-6-6-6-6-6-6-6-6-6-6-6-|
A|-3-3-3-3-3-3-5---3-3-3-3-3-3-3----3-3-3-3-3-3-3-3-3-3-3-3-3-3-|
E|--------------------------------------------------------------|

Riff 2 (Pre Chorus)
E|-1-1-1-1-1-1-1-1-1-1--4-4-4-4-4-4-4-4-4-4-4-4-|
B|-1-1-1-1-1-1-1-1-1-1--4-4-4-4-4-4-4-4-4-4-4-4-|
G|-3-3-3-3-3-3-3-3-3-3--5-5-5-5-5-5-5-5-5-5-5-5-|
D|----------------------6-6-6-6-6-6-6-6-6-6-6-6-|
A|----------------------------------------------|
E|----------------------------------------------|

Riff 3 (chorus)
Listen to the song for the timing
E|-3-----4--3--1-1-1-1-1-1-1-1-1-1-1-1-|
B|-3-----4--4--3-3-3-3-3-3-3-3-3-3-3-3-|
G|-3-----5--3--3-3-3-3-3-3-3-3-3-3-3-3-|
D|-5-----6--5--------------------------|
A|-------------------------------------|
E|-------------------------------------|

Break
Listen to the song for the timing
E|---------|
B|---------|
G|---------|
D|----8-8b-|
A|-8b------|
E|---------|
[ Tab from: http://www.guitartabs.cc/tabs/m/my_vitriol/cemented_shoes_tab.html ]
Interlude
Guitar 1 (play twice)
E|-------------333333-------------------------------|
B|-------333333------------33334444-----------------|
G|-------------------5555----------5555555544444444-|
D|--------------------------------------------------|
A|-222222-------------------------------------------|
E|--------------------------------------------------|

Guitar 2 (play over 2nd guitar 1 part)
E|-11-11-11-11-11-11-11-11-11-13-13-13-|
B|-------------------------------------|
G|-------------------------------------|
D|-------------------------------------|
A|-------------------------------------|
E|-------------------------------------|

E|-11-11-11-11-11-11-11-11-11-10-10-10-|
B|-------------------------------------|
G|-------------------------------------|
D|-------------------------------------|
A|-------------------------------------|
E|-------------------------------------|

E|-11-11-11-11-11-11-11-11-11-10-10-10-|
B|-------------------------------------|
G|-------------------------------------|
D|-------------------------------------|
A|-------------------------------------|
E|-------------------------------------|

End on Kohlstream riff

E|-------------|
B|-4-----4-----|
G|-------------|
D|---5-6-------|        x 4
A|-------------|
E|-------------|


Order

Riff 1 x 2

Riff 2 x 1

Riff 3 x 2

Riff 1 x 2

Riff 2 x 1

Riff 3 x 2

Riff 1 x 2

Break

Riff 3 x 4

Interlude

Riff 2 x 1

Riff 3 x 4

Kohlstream riff

 
:: Ultimate Guitar Archive :: 
http://www.ultimate-guitar.com 



Comments