My Vitriol - Always Your Way Chords & Tabs

 

Always Your Way Chords & Tabs

My Vitriol Chords & Tabs

Version: 2 Type: Tab 0 ratings
1 star 2 stars 3 stars 4 stars 5 stars
comments

Always Your Way Tab

my vitriol, always:your way.
 Tabbed by Sander,i_ate_your_balls@hotmail.com.
  
Song:  Always: your way
Band:  My Vitriol
Album: Finelines
Tuning: Standard Capo on 2nd fret
Tabbed by: $@NDER(i_ate_your_balls@hotmail.com) 
All chords relative to capo

Intro
                              repeat 4x
e|----12---12-------12----12--------------|
B|-10---10----10-10----10-----------------|
G|-11---11----11-11----11-----------------|
D|----------------------------------------|
A|----------------------------------------|
E|----------------------------------------|

e|--------------------------------------|
B|-----5-5-5-5-5h7----------------------|
G|-6h7------------6-6-6-6---------------|
D|--------------------------------------|
A|--------------------------------------|
E|--------------------------------------|
after 2x
e|--------------------------------------|
B|--------------------------------------|
G|--------------------------------------|
D|-5-5-5-5-5-5-5-5-/-4-4-4-4------------|
A|--------------------------------------|
E|--------------------------------------|

verse
e|-2-0-5-2-2-0-5-2-3-3-3-0-0-0-3-3-3-2-------------|
B|-3-------3-------3-3-3-0-0-0-3-3-3-3-------------|
G|-2-------4-------4-4-4-0-0-0-4-4-4-2-------------|
D|-0-------4-------5-5-5-2-2-2-5-5-5-0-------------|
A|-0-------2-------5-5-5-2-2-2-5-5-5-0-------------|
E|---------2-------3-3-3-0-0-0-3-3-3-0-------------|
[ Tab from: http://www.guitartabs.cc/tabs/m/my_vitriol/always_your_way_tab_ver_2.html ]
Chorus
e|-0-0-0-0-0-3-3-3-3-3-2-2-2-2-2-5-5-5-5-5---------|
B|-0-0-0-0-0-3-3-3-3-3-3-3-3-3-3-5-5-5-5-5---------|
G|-0-0-0-0-0-4-4-4-4-4-2-2-2-2-2-5-5-5-5-5---------|
D|-2-2-2-2-2-5-5-5-5-5-0-0-0-0-0-7-7-7-7-7---------|
A|-2-2-2-2-2-5-5-5-5-5-0-0-0-0-0-7-7-7-7-7---------|
E|-0-0-0-0-0-3-3-3-3-3-0-0-0-0-0-5-5-5-5-5---------|

e|-0-0-0-0-0-3-3-3-3-3-2-2-2-2-2-------------------|
B|-0-0-0-0-0-3-3-3-3-3-3-3-3-3-3-------------------|
G|-0-0-0-0-0-4-4-4-4-4-2-2-2-2-2-7-7-7-9-9-9-9-----|
D|-2-2-2-2-2-5-5-5-5-5-0-0-0-0-0-x-x-x-x-x-x-x-----|
A|-2-2-2-2-2-5-5-5-5-5-0-0-0-0-0-5-5-5-7-7-7-7-----|
E|-0-0-0-0-0-3-3-3-3-3-0-0-0-0-0-------------------|

Interlude
E|----------------------------9b10r9--------------------------|
B|-8--7\\3--8--7--8--7\\3--8--7--------------8--7\\3--8--7-----8-|
G|------------------------------------------------------------|
D|------------------------------------------------------------|
A|------------------------------------------------------------|
E|------------------------------------------------------------|
 
E|--------11--|
B|---7\\3------|
G|------------|
D|------------|
A|------------|
E|------------|
Outro
e|-----------------------------------------|
B|-----------------------------------------|
G|-8-8-8-7-7-7-7-8-8-8-7-7-7-7-------------|
D|----------------------------7-7-7-9-9-9-9|
A|-----------------------------------------|
E|-----------------------------------------|

e|--------------------------------------|
B|-8-8-7-8-8-7--------------------------|
G|--------------------------------------|
D|--------------------------------------|
A|--------------------------------------|
E|--------------------------------------|

It's actually played on 2 guitars but 1 is enough
any commend email me @ i_ate_your_balls@hotmail.com 
 
:: Ultimate Guitar Archive :: 
http://www.ultimate-guitar.com 



Comments