My Ruin - Monster Chords & Tabs

 

Monster Chords & Tabs

My Ruin Chords & Tabs

Version: 2 Type: Tab 0 ratings
1 star 2 stars 3 stars 4 stars 5 stars
comments

Monster Tab

If u like this tab check out my other myruin ones on this site
to date there only preacher but more are coming

INTRO

Bass riff
G:|----------------------------------|
D:|----------------------------------|
A:|--------9--9--8-------------------|
E:|4-4-5-4----------6---6-5-6-4-5-6-7|

Guitar riff
E:|----------------------------------|
B:|----------------------------------|
G:|--------11-11-10------------------|
D:|6-6-7-6-11-11-10-8---8-7-8-6-7-8-9|
A:|6-6-7-6-9--9--8--8---8-7-8-6-7-8-9|
E:|4-4-5-4----------6---6-5-6-4-5-6-7|


VERSE

Bass riff
G:|----------------------------------|
D:|----------------------------------|
A:|--------9--9--8-------------------|
E:|4-4-5-4----------6---6-5-6-4-5-6-7|

Guitar riff
E:|----------------------------------|
B:|----------------------------------|
G:|----------------------------------|
D:|6-6-------------------------------|
A:|6-6-------------------------------|
E:|4-4-------------------------------|

[ Tab from: http://www.guitartabs.cc/tabs/m/my_ruin/monster_tab_ver_2.html ]
SOLO
Dead easy just use a little wawa and bend to taste
basically just a higher version of the main riff

Lead solo riff
E:|-------------------------------------------------|
B:|-------------------------------------------------|
G:|-------------------------------------------------|
D:|------------16-16-15-----------------------------|
A:|-11-11-12-11---------13---13-14-16-11-12-13-14---|
E:|-------------------------------------------------|

E:|-------------------------------------------------|
B:|-------------------------------------------------|
G:|-------------------------------------------------|
D:|------------16-16-15-----------------------------|
A:|-11-11-12-11---------13--------------------------|
E:|-------------------------------------------------|

BREAK

Gutiar Riff
E:|------------------|
B:|------------------|
G:|------------------|
D:|-13-14---13-10-12-|
A:|-13-14---13-10-12-|
E:|-11-12---11-9--10-|


There u go im pretty sure this 100% accurate any complaints errors etc
mail to sataniclawnornament@hotmail.com
Comments