My Ruin - Miss Anne Thrope Chords & Tabs

 

Miss Anne Thrope Chords & Tabs

My Ruin Chords & Tabs

Version: 1 Type: Tab 0 ratings
1 star 2 stars 3 stars 4 stars 5 stars
comments

Miss Anne Thrope Tab

================My Ruin - Miss Anne Thrope================

By Andrew Crawford
This is my first tab, and as far as i know its the only existing tab of a
My Ruin song. Its not too difficult, if only the rest of the album was as 
easy

Intro (x4)
e-----------------------------------
B-----------------------------------
G------------5--4-------------------
D----3--3---------------------------
A----3--3---------------------------
E----1--1---------------------------

Intro2 (x2)
e-------------------------------------------------------------------------------
B-------------------------------------------------------------------------------
G--------------------------------------------5----------------------------------
D--3-3-4-3----3-3-4-3----3-3-4-3----3-3-4-3-------------------------------------
A--3-3-4-3----3-3-4-3----3-3-4-3----3-3-4-3-------------------------------------
E--1-1-2-1----1-1-2-1----1-1-2-1----1-1-2-1-------------------------------------

Verse (x4)
e-------------------------------------------------------------------------------
B-------------------------------------------------------------------------------
G-------------------------------------------------------------------------------
D--3-4-3-3-3-3--3----3-4-3-3-3-3--3----3-4-3-3-3-3--3----3-4-3-3-3-3-3-3-3------
A--3-4-3-3-3-3--3----3-4-3-3-3-3--3----3-4-3-3-3-3--3----3-4-3-3-3-3-3-3-3------
E--1-2-1-1-1-1--1----1-2-1-1-1-1--1----1-2-1-1-1-1--1----1-2-1-1-1-1-1-1-1------

Chorus (x2)
e-------------------------------------------------------------------------------
B-------------------------------------------------------------------------------
G-------------------------------------------------------------------------------
D--3-3-4-3-3-3-3-3-4-4----3-3-4-3-3-3-3-3-4-4----3-3-4-3-3-3-3-3-4-4----3-3-3-3-
A--3-3-4-3-3-3-3-3-4-4----3-3-4-3-3-3-3-3-4-4----3-3-4-3-3-3-3-3-4-4----3-3-3-3-
E--1-1-2-1-1-1-1-1-2-2----1-1-2-1-1-1-1-1-2-2----1-1-2-1-1-1-1-1-2-2----1-1-1-1-
[ Tab from: http://www.guitartabs.cc/tabs/m/my_ruin/miss_anne_thrope_tab.html ]
Then play verse x4 and chorus x4 followed by intro2 x2
The play the bridge parts when Tairrie sings
"You have left a trail of......Then fuck you"

Bridge1 (slow, x2)
e----------------------------------------
B----------------------------------------
G----------------------------------------
D----------------------------------------
A--------1-2-1---------------------------
E--1-2-1-------2-1-2---------------------
I'm not completely sure about this part, it sounds right to me

Bridge2 (play until end of bridge)
e----------------------------------------
B----------------------------------------
G----------------------------------------
D----------------------------------------
A--xxxxxxxxxxxxxxxxxxxxxxxxxxxxxxxxxxx---
E--xxxxxxxxxxxxxxxxxxxxxxxxxxxxxxxxxxx---

Then play the chorus again 4x
Then the outro parts once each

Outro1
e-------------------------------------------------------------------------------
B-------------------------------------------------------------------------------
G-------------------------------------------------------------------------------
D--3-3-4-3-3----3-3-4-3-3----3-3-4-3-3----3-3-3-3-------------------------------
A--3-3-4-3-3----3-3-4-3-3----3-3-4-3-3----3-3-3-3-------------------------------
E--1-1-2-1-1----1-1-2-1-1----1-1-2-1-1----1-1-1-1-------------------------------

Outro2
e-------------------------------------------------------------------------------
B-------------------------------------------------------------------------------
G-------------------------------------------------------------------------------
D--3-3-4-3-3----3-3-4-3-3----3-3-4-3-3----3-3-3-3-3-----------------------------
A--3-3-4-3-3----3-3-4-3-3----3-3-4-3-3----3-3-3-3-3-----------------------------
E--1-1-2-1-1----1-1-2-1-1----1-1-2-1-1----1-1-1-1-1-----------------------------

I've done my best to illustrate the rhythm here, but you will most likely 
have
to listen to the song a few times to get it right.
Any comments go to wierdpunkkid@hotmial.com

Comments