My Own Sake - Vicoden For Calcium Chords & Tabs

 

Vicoden For Calcium Chords & Tabs

My Own Sake Chords & Tabs

Version: 1 Type: Tab 0 ratings
1 star 2 stars 3 stars 4 stars 5 stars
comments

Vicoden For Calcium Tab

----------------------------------------------------------------------
----------------------------------------------------------------------
-------10--------9---------7---------5--------------------------------
----------------------------------------------------------------------
-x--xx-8---x--xx-7---x--xx-5---x--xx-3-----((on 2nd time, slide down--
-x--xx-----x--xx-----x--xx-----x--xx---------------all chords to 1,3))
[ Tab from: http://www.guitartabs.cc/tabs/m/my_own_sake/vicoden_for_calcium_tab.html ]
---------------------------------------------------------------------
-----------------------------------------------------------------------
----------------------------55555--------------------------------------
---------------------------------------------------------------------
-0-1-xx-0-1-xx-0-1-0-1-xx-0-33333--------------------------------------------------------
-0-1-xx-0-1-xx-0-1-0-1-xx-0-----------------------------------------------------------
Comments