My Own Sake - Flawed Innocence Chords & Tabs

 

Flawed Innocence Chords & Tabs

My Own Sake Chords & Tabs

Version: 1 Type: Tab 0 ratings
1 star 2 stars 3 stars 4 stars 5 stars
comments

Flawed Innocence Tab

Chorus
----------------------------------------------------------------------
-----------------------------------------------------------------------
-2----4-5-4-2-1-------------------------------------------------------------
-2----4-5-4-2-2------3---6----------------------------------------------------
-0----2-3-2-0-2------3---6----------------------------------------------------
-0----2-3-2-0-0------1---4-----------------------------------------------------


Bridge
----------------------------------------------------------------------
----------------------------------------------------------------------
--------------12-12--9--9--------------------------------------------------
-2--x-x-x-2---x--x------------------------------------------------------------
-2--x-x-x-2---9--9---7--7--------------play 4 times-------------------
-0--x-x-x-0----------------------------------------------------------------

[ Tab from: http://www.guitartabs.cc/tabs/m/my_own_sake/flawed_innocence_tab.html ]
Verse
----------------------------------------------------------------------
----------------------------------------------------------------------
----------------------------------------------------------------------
-(3)-(2)-(0)-(0)-(3)-(2)-(0)-(0)-(3)-(2)-(0)-(0)-(3)-(2)-(0)-(0)------
-(3)-(2)-(0)-(0)-(3)-(2)-(0)-(0)-(3)-(2)-(0)-(0)-(3)-(2)-(0)-(0)-----
-(3)-(2)-(0)-(0)-(3)-(2)-(0)-(0)-(3)-(2)-(0)-(0)-(3)-(2)-(0)-(0)------



----------------------------------------------------------------------
--------------12-12--9--9----------------------------------------------------
--------------x--x---x--x---------------------------------------------------
-2--X-X-X-2---9--9---7--7------------------------------------------------------
-2--X-X-X-2-----------------------------------------------------------------
-0--------0-------------------------------------------------------------



this is played in standard tuning
also sounds good in C
not complete 
Comments