My Morning Jacket - Same In Any Language Chords & Tabs

 

Same In Any Language Chords & Tabs

My Morning Jacket Chords & Tabs

Version: 1 Type: Tab 0 ratings
1 star 2 stars 3 stars 4 stars 5 stars
comments

Same In Any Language Tab

   
Same in Any Language
Written by INine performed by My Morning Jacket

Intro / (FILL 1)                     G      C/G
-------------------------------------3--------------------------|
-------------------------------------3-------1------------------|
-------------0------------0----------0-------0------------------|
---------------4------------2--------0-------2------------------|
------3/5--------5----3-------3------2-------3------------------|
-------------------------------------3-------3------------------|

Verse 1
G                     C/G (Fill 1)
Some time ago I met a Navajo
G                     C/G (Fill 2)
In a parking lot in Tokyo
D                        C (Fill 3)
He said everything wordlessly,
D                                  C (Fill 4)
But the wanderlust in my eyes he did see
G      C/G (Fill 1)
Oh yeah
G      C/G
Oh oh yea


[ Tab from: http://www.guitartabs.cc/tabs/m/my_morning_jacket/same_in_any_language_tab.html ]
Fill 2
--------------------------------|
--------0—3r0-------------------|
---2/4---------0----------------|
-----------------0--------------|
--------------------------------|
--------------------------------|

Fill 3
------------------------------|
--1/3---3---3\1--0------------|
--2/4---4---4\2--0------------|
------------------------------|
------------------------------|
------------------------------|

Fill 4 (Strumming)
   C
---0---------0-----0-----0----|
---1-/--3----3-----3\1---1----|
---0---------0-----0-----0----|
---2-/--4----4-----4\2---2----|
---3-/--5----5-----5\3---3----|
------------------------------|

Those post cards I sent to Birmingham
All the way from Amsterdam
I copped a gram from Dappersan
Just a four letter man in another jam
Oh yeah
Oh oh yea


Chorus
Am                         C
Its the same in any language
Am                        C
A brother is a brother if there’s one thing I know
D                         C
Its the same in any language
              G (Fill 1)
Wherever you go


I ran out of Jack in Tripoli
Those freedom fighters sure were good to me
They asked me all about Tennessee
And on one thing we all did agree
Oh yeah
Oh oh yeah
Comments